Oops, an error
Loading. Please wait.

Groovy bass

2,262 views 3 this week
no commentswrite comment
1 2 3 4 5
3 more votes to show rating
add to favorites
×
Save as Personal and add changes to this tab that will be seen only by you. Learn more ›
×
You can save this tab as Personal to edit and correct it or add notes. All changes will be seen only by you. Learn more »
launch autoscroll
font size
0
reset
guitar tuner
edit
Autoscroll
slow
fast
+/-
esc
set tempo
stop
Author
Difficulty
Most Difficult Tab So Far
Tabbed By: Roddy
Corrections/Questions: muruly59@gmail.com

Album: Man In The Hills (1976)
Song: Groovy


INTRO:

G|-----------------------------------------------| 
D|----8-8-8-8----8---------8-8-8-8-----8---------| x4
A|-----------------------------------------------|    
E|--6---------6----8----6---------6-----6--------|


VERSE 1:

G|---------------------------|----------------|------------------------| 
D|---------------------------|----------------|------------------------| 
A|--6-4----------------------|-6-4------------|---------4-6------------|    
E|------4---4-4--5-6-7---(3)-|------4-----(3)-|---4----------(6)-------|

VERSE 2:

G|---------------------------|----------------|------------------------| 
D|---------------------------|----------------|------------------------| 
A|--6-4----------------------|-6-4------------|---------4-6------------|    
E|------4---4-4--5-6-7---(3)-|------4-----(3)-|-3--4---------(6)-------|

ALT RIFF: Improv Riff By Familyman.

G|---------------------------|----------------|------------------------| 
D|---------------------------|----------------|------------------------| 
A|--6-4----------------------|-0-6-6--4-------|-----2------------------|    
E|------4---4-4--5-6-7---(3)-|------------(3)-|--3----3------(5)-------|


()- Let The Note Ring A Little

            
            
Suggest correction
Creating personal tab
Creating personal tab
You can edit any tab online and save it as your Personal.

You can edit, replace or remove any tab part or add personal notes – all changes will be seen only by you.

Personal tabs can be accessed anytime from any device, even offline.
Learn more »
Give kudos to tab author, rate the tab!
1 2 3 4 5
comments
print report bad tab
guest
You may want to rate the tab now too:
select rating
Wanna post a correction for this tab? Suggest correction