Oops, an error
Loading. Please wait.

Cyanide tab

version 1
version 1

Whole song

Interactive

3,943 views 1 this week
no commentswrite comment
1 2 3 4 5
1 last vote to show rating
add to favorites
×
Save as Personal and add changes to this tab that will be seen only by you. Learn more ›
×
You can save this tab as Personal to edit and correct it or add notes. All changes will be seen only by you. Learn more »
launch autoscroll
font size
0
reset
how to read this tab
guitar tuner
edit
Autoscroll
slow
fast
+/-
esc
set tempo
stop
This is the version of Cyanide on "Volatile Existence", and not "Mind Control".

Arde
                          PM PM PM PM PM PM PM PM PM PM PM PM
     W                    S  S  S  S  S  S  S  S  S  S  S  S  S  S S  S
D|--------------------|------------------------------------------------|
A|--------------------|------------------------------------------------|
F|--------------------|------------------------------------------------|
C|--------------------|------------------------------------------------|
G|--------------------|------------------------------------------------|
C|--5~----------------|--8--7--5--5--8--7--5--5--8--7--5--5--8-10-7-10-|

    PM PM PM PM PM PM PM PM
    S  S  S  S  S  S  S  S  S  S S S S  S S S
D|--------------------------------------------|
A|--------------------------------------------|
F|--------------------------------------------|
C|-----------------------------------7-10-----|
G|-------------------------------6-9------6-9-|
C|--8--7--5--5--8--7--5--5--7-10--------------|

    PM PM PM PM PM PM PM PM PM PM PM PM
    S  S  S  S  S  S  S  S  S  S  S  S  S  S S  S
D|------------------------------------------------|
A|------------------------------------------------|
F|------------------------------------------------|
C|------------------------------------------------|
G|------------------------------------------------|
C|--8--7--5--5--8--7--5--5--8--7--5--5--8-10-7-10-|

    PM PM PM PM PM PM PM PM
    S  S  S  S  S  S  S  S  E  E  E  E
D|--------------------------------------|
A|--------------------------------------|
F|--------------------------------------|
C|--------------------------------------|
G|--------------------------------------|
C|--8--7--5--5--8--7--5--5--7--5--4--1--|

    PM PM PM             PM PM PM
             |-3-| |-3-|          |-3-| |-3-|
    E  S  S  S S S S S S E  S  S  S S S S S S
D|--------------------------------------------|
A|--------------------------------------------|
F|--------------------------------------------|
C|--------------------------------------------|
G|-----------------3-4-6----------------3-5-6-|
C|--3--3--3--3-4-6-------3--3--3--3-4-6-------|

       PM PM PM PM PM PM PM PM PM
                                  |-3-| |-3-|
    E  S  S  S  S  S  S  E  S  S  S S S S S S
D|--------------------------------------------|
A|--------------------------------------------|
F|--------------------------------------------|
C|--3-----------------------------------------|
G|--------------------------------------3-5-6-|
C|-----3--3--3--3--3--3--3--3--3--3-4-6-------|

    PM PM PM             PM PM PM
             |-3-| |-3-|          |-3-| |-3-|
    E  S  S  S S S S S S E  S  S  S S S S S S
D|--------------------------------------------|
A|--------------------------------------------|
F|--------------------------------------------|
C|--------------------------------------------|
G|-----------------3-4-6----------------3-5-6-|
C|--3--3--3--3-4-6-------3--3--3--3-4-6-------|

       PM PM PM PM PM PM PM PM PM
                                  |-3-| |-3-|
    E  S  S  S  S  S  S  E  S  S  S S S S S S
D|--------------------------------------------|
A|--------------------------------------------|
F|--------------------------------------------|
C|--3-----------------------------------------|
G|--------------------------------------3-5-6-|
C|-----3--3--3--3--3--3--3--3--3--3-4-6-------|

    PM PM PM             PM PM PM
             |-3-| |-3-|          |-3-| |-3-|
    E  S  S  S S S S S S E  S  S  S S S S S S
D|--------------------------------------------|
A|--------------------------------------------|
F|--------------------------------------------|
C|--------------------------------------------|
G|-----------------6-7-9----------------6-7-9-|
C|--6--6--6--6-7-9-------6--6--6--6-7-9-------|

       PM PM PM PM PM PM PM PM PM
                                  |-3-| |-3-|
    E  S  S  S  S  S  S  E  S  S  S S S S S S
D|--------------------------------------------|
A|--------------------------------------------|
F|--------------------------------------------|
C|--6-----------------------------------------|
G|--------------------------------------6-7-9-|
C|-----6--6--6--6--6--6--6--6--6--6-7-9-------|

    PM PM PM             PM PM PM
             |-3-| |-3-|          |-3-| |-3-|
    E  S  S  S S S S S S E  S  S  S S S S S S
D|--------------------------------------------|
A|--------------------------------------------|
F|--------------------------------------------|
C|--------------------------------------------|
G|-----------------6-7-9----------------6-7-9-|
C|--6--6--6--6-7-9-------6--6--6--6-7-9-------|

       PM PM PM PM PM PM PM PM PM                                PM PM
                                  |-3-| |-3-|
    E  S  S  S  S  S  S  E  S  S  S S S S S S    Q    Q    E  E  E  E
D|--------------------------------------------|------------------------|
A|--------------------------------------------|------------------------|
F|--------------------------------------------|------------------------|
C|--6-----------------------------------------|------------------------|
G|--------------------------------------6-7-9-|------------------------|
C|-----6--6--6--6--6--6--6--6--6--6-7-9-------|--8----7----8--7--5--4--|

                        PM PM                    PM PM
     Q     Q     E   E  E  E     Q    Q    E  E  E  E
D|----------------------------|------------------------|
A|----------------------------|------------------------|
F|----------------------------|------------------------|
C|----------------------------|------------------------|
G|----------------------------|------------------------|
C|--12----11----12--11--8--7--|--8----7----8--7--5--4--|

                                 TP   TP   TP TP TP TP
     Q     Q     E   E  E  E     Q    Q    E  E  E  E
D|----------------------------|------------------------|
A|----------------------------|------------------------|
F|----------------------------|------------------------|
C|----------------------------|------------------------|
G|----------------------------|------------------------|
C|--12----11----12--11--8--7--|--8----7----8--7--5--4--|

     TP    TP    TP  TP TP TP    TP   TP   TP TP TP TP
     Q     Q     E   E  E  E     Q    Q    E  E  E  E
D|----------------------------|------------------------|
A|----------------------------|------------------------|
F|----------------------------|------------------------|
C|----------------------------|------------------------|
G|----------------------------|------------------------|
C|--12----11----12--11--8--7--|--8----7----8--7--5--4--|

     TP    TP    TP  TP TP TP     PM PMPM PM  PM PMPM PM  PM PMPM PM
     Q     Q     E   E  E  E      S  S S  S   S  S S  S   S  S S  S   S  S  S  S
D|----------------------------|--------------------------------------------------|
A|----------------------------|--------------------------------------------------|
F|----------------------------|--------------------------------------------------|
C|----------------------------|--------------------------------------------------|
G|----------------------------|--------------------------------------------------|
C|--12----11----12--11--8--7--|--12-10-8--8--12-10-8--8--12-10-8--8--12-13-10-13-|

     PM PMPM PM  PM PMPM PM
     S  S S  S   S  S S  S   S  S S  S  S  S  S S
D|------------------------------------------------|
A|------------------------------------------------|
F|------------------------------------------------|
C|-------------------------------------10-13------|
G|--------------------------------9-12-------12-9-|
C|--12-10-8--8--12-10-8--8--10-13-----------------|

     PM PMPM PM  PM PMPM PM  PM PMPM PM
     S  S S  S   S  S S  S   S  S S  S   S  S  S  S
D|--------------------------------------------------|
A|--------------------------------------------------|
F|--------------------------------------------------|
C|--------------------------------------------------|
G|--------------------------------------------------|
C|--12-10-8--8--12-10-8--8--12-10-8--8--12-13-10-13-|

     PM PMPM PM  PM PMPM PM
     S  S S  S   S  S S  S   E  E  E  E
D|---------------------------------------|
A|---------------------------------------|
F|---------------------------------------|
C|---------------------------------------|
G|---------------------------------------|
C|--12-10-8--8--12-10-8--8--10--8--7--4--|

    PM PM PM             PM PM PM
             |-3-| |-3-|          |-3-| |-3-|
    E  S  S  S S S S S S E  S  S  S S S S S S
D|--------------------------------------------|
A|--------------------------------------------|
F|--------------------------------------------|
C|--------------------------------------------|
G|-----------------3-4-6----------------3-5-6-|
C|--3--3--3--3-4-6-------3--3--3--3-4-6-------|

       PM PM PM PM PM PM PM PM PM
                                  |-3-| |-3-|
    E  S  S  S  S  S  S  E  S  S  S S S S S S
D|--------------------------------------------|
A|--------------------------------------------|
F|--------------------------------------------|
C|--3-----------------------------------------|
G|--------------------------------------3-5-6-|
C|-----3--3--3--3--3--3--3--3--3--3-4-6-------|

    PM PM PM             PM PM PM
             |-3-| |-3-|          |-3-| |-3-|
    E  S  S  S S S S S S E  S  S  S S S S S S
D|--------------------------------------------|
A|--------------------------------------------|
F|--------------------------------------------|
C|--------------------------------------------|
G|-----------------3-4-6----------------3-5-6-|
C|--3--3--3--3-4-6-------3--3--3--3-4-6-------|

       PM PM PM PM PM PM PM PM PM
                                  |-3-| |-3-|
    E  S  S  S  S  S  S  E  S  S  S S S S S S
D|--------------------------------------------|
A|--------------------------------------------|
F|--------------------------------------------|
C|--3-----------------------------------------|
G|--------------------------------------3-5-6-|
C|-----3--3--3--3--3--3--3--3--3--3-4-6-------|

    PM PM PM             PM PM PM
             |-3-| |-3-|          |-3-| |-3-|
    E  S  S  S S S S S S E  S  S  S S S S S S
D|--------------------------------------------|
A|--------------------------------------------|
F|--------------------------------------------|
C|--------------------------------------------|
G|-----------------6-7-9----------------6-7-9-|
C|--6--6--6--6-7-9-------6--6--6--6-7-9-------|

       PM PM PM PM PM PM PM PM PM
                                  |-3-| |-3-|
    E  S  S  S  S  S  S  E  S  S  S S S S S S
D|--------------------------------------------|
A|--------------------------------------------|
F|--------------------------------------------|
C|--6-----------------------------------------|
G|--------------------------------------6-7-9-|
C|-----6--6--6--6--6--6--6--6--6--6-7-9-------|

    PM PM PM             PM PM PM
             |-3-| |-3-|          |-3-| |-3-|
    E  S  S  S S S S S S E  S  S  S S S S S S
D|--------------------------------------------|
A|--------------------------------------------|
F|--------------------------------------------|
C|--------------------------------------------|
G|-----------------6-7-9----------------6-7-9-|
C|--6--6--6--6-7-9-------6--6--6--6-7-9-------|

       PM PM PM PM PM PM PM PM PM
                                  |-3-| |-3-|
    E  S  S  S  S  S  S  E  S  S  S S S S S S    Q    Q    Q    Q
D|--------------------------------------------|----------------------|
A|--------------------------------------------|----------------------|
F|--------------------------------------------|----------------------|
C|--6-----------------------------------------|----------------------|
G|--------------------------------------6-7-9-|----------------------|
C|-----6--6--6--6--6--6--6--6--6--6-7-9-------|--8----7----8----7----|

    S  S S  S  S S  S S S  S S  S  S S  S S
D|------------------------------------------|
A|------------------------------------------|
F|------------------------------------------|
C|------------11-8----------------11-8------|
G|-------7-10------10-7------7-10------10-7-|
C|--8-12----------------8-12----------------|

    S  S S  S  S S  S S S S S S S S S S
D|--------------------------------------|
A|--------------------------------------|
F|--------------------------------------|
C|------------11-8----------------------|
G|-------7-10------10-7-----------------|
C|--8-12----------------8-8-8-8-8-8-8-8-|

    S  S S  S  S S  S S S  S S  S  S S  S S
D|------------------------------------------|
A|------------------------------------------|
F|------------------------------------------|
C|------------11-8----------------11-8------|
G|-------7-10------10-7------7-10------10-7-|
C|--8-12----------------8-12----------------|

    S  S S  S  S S  S S S S S S S S S S
D|--------------------------------------|
A|--------------------------------------|
F|--------------------------------------|
C|------------11-8----------------------|
G|-------7-10------10-7-----------------|
C|--8-12----------------8-8-8-8-8-8-8-8-|

     S  S S  S  S  S  S S  S  S S  S  S  S  S S
D|----------------------------------------------|
A|----------------------------------------------|
F|----------------------------------------------|
C|-------------13-10-----------------13-10------|
G|--------9-12-------12-9-------9-12-------12-9-|
C|--10-13-----------------10-13-----------------|

     S  S S  S  S  S  S S  S  S  S  S  S  S  S  S
D|------------------------------------------------|
A|------------------------------------------------|
F|------------------------------------------------|
C|-------------13-10------------------------------|
G|--------9-12-------12-9-------------------------|
C|--10-13-----------------10-10-10-10-10-10-10-10-|

     S  S S  S  S  S  S S  S  S S  S  S  S  S S
D|----------------------------------------------|
A|----------------------------------------------|
F|----------------------------------------------|
C|-------------13-10-----------------13-10------|
G|--------9-12-------12-9-------9-12-------12-9-|
C|--10-13-----------------10-13-----------------|

     S  S S  S  S  S  S S  S  S  S  S  S  S  S  S
D|------------------------------------------------|
A|------------------------------------------------|
F|------------------------------------------------|
C|-------------13-10------------------------------|
G|--------9-12-------12-9-------------------------|
C|--10-13-----------------10-10-10-10-10-10-10-10-|

     S  S  S  S  S  S  S  S  S  S  S  S  S  S  S  S
D|--------------------------------------------------|
A|--------------------------------------15-18-------|
F|--------------------13-16-------13-16-------13-10-|
C|--------------12-15-------12-15-------------------|
G|--------11-14-------------------------------------|
C|--12-15-------------------------------------------|

                    PM              PM PM PM PM
     S S  S S S S S S  H            E  E  E  E  E  E  E  E
D|-------------------------------|--------------------------|
A|-------------------------------|--------------------------|
F|-------------------------------|--------------------------|
C|--12-9-------------------------|--------------------------|
G|-------11-8-6-3----------------|--0--2--1--2--5-----------|
C|----------------7-4--4~--------|--0--2--1--2-----8--7--5--|

       PM PM PM                               PM PM PM PM
    E  E  E  E  E  E  E  E     E  E  E  E     E  E  E  E  E  E  E  E
D|--------------------------|--------------|--------------------------|
A|--------------------------|--------------|--------------------------|
F|--------------------------|--------------|--------------------------|
C|--------------------------|--------------|--------------------------|
G|-----2--1--2--5--------5--|--------5-----|--0--2--1--2--5-----------|
C|-----2--1--2-----8--7-----|--8--7-----8--|--0--2--1--2-----8--7--5--|

       PM PM PM                                 PM PM PM PM
    E  E  E  E  E  E  E  E     E  E  E  E       E  E  E  E  E  E  E  E
D|--------------------------|--------------||---------------------------|
A|--------------------------|--------------||---------------------------|
F|--------------------------|--------------||*--------------------------|
C|--------------------------|--------------||*--------------1--2--1-----|
G|-----2--1--2--5--------5--|--------5-----||---0--2--1--2--1--2--1--3--|
C|-----2--1--2-----8--7-----|--8--7-----8--||---0--2--1--2-----------5--|

       PM PM PM                               PM PM PM PM
    E  E  E  E  E  E  E  E     E  E  E  E     E  E  E  E  E  E  E  E
D|--------------------------|--------------|--------------------------|
A|--------------------------|--------------|--------------------------|
F|--------------------------|--------------|--------------------------|
C|--------------1--2-----1--|--2-----------|--------------1--2--1-----|
G|-----2--1--2--1--2--3--1--|--2--3--2--0--|--0--2--1--2--1--2--1--3--|
C|-----2--1--2--------5-----|-----5--4--2--|--0--2--1--2-----------5--|

       PM PM PM                                 TP    TP    TP   TP
    E  E  E  E  E  E  E  E     E  E  E  E   3x  Q     Q     Q    Q
D|--------------------------|---------------||------------------------|
A|--------------------------|---------------||------------------------|
F|--------------------------|--------------*||------------------------|
C|--------------1--2-----1--|--2-----------*||------------------------|
G|-----2--1--2--1--2--3--1--|--2--3--2--0---||------------------------|
C|-----2--1--2--------5-----|-----5--4--2---||--8----12----10----7----|

    TP    TP    TP   TP      TP    TP    TP   TP
    Q     Q     Q    Q       Q     Q     Q    Q       H         H
D|------------------------|------------------------|----------------------|
A|------------------------|------------------------|----------------------|
F|------------------------|------------------------|----------------------|
C|------------------------|------------------------|----------------------|
G|------------------------|------------------------|----------------------|
C|--8----12----10----7----|--8----12----10----7----|--8~--------4~--------|
  
     |-3-| |-3-| |-3-| |-3-| |--3-| |-3-| |-3-| |-3-|
     S S S S S S S S S S S S S  S S S S S S S S S S S
D|--10-5-1---------------3-5-9-13-9-5---------------5-|
A|---------3-----------3--------------6-----------6---|
F|-----------3-------3------------------7-------7-----|
C|-------------3-1-3----------------------8-5-8-------|
G|----------------------------------------------------|
C|----------------------------------------------------|
  
    |--3--|  |--3--|  |--3--|  |--3--|  |--3--|  |--3--|
    S  S  S  S  S  S  S  S  S  S  S  S  S  S  S  S  S  S   Q
D|--9-13-18-13----------------------------13-17-13--------------|
A|-------------15----------------------15----------15-----------|
F|----------------14----------------14----------------14~--L----|
C|-------------------15----------15-----------------------------|
G|----------------------17-13-17--------------------------------|
C|--------------------------------------------------------------|

     S  S  S  S  S  S  S S  S  S  S  S  S S  S S
D|--18-13-17-12-15-10-13-9-17-12-15-10-13-9-12-8-|
A|-----------------------------------------------|
F|-----------------------------------------------|
C|-----------------------------------------------|
G|-----------------------------------------------|
C|-----------------------------------------------|

     S  S  S S  S S  S S T   T  T   T  T   T  T   T  T   T  T   T  T   T  T   T
D|--15-10-13-9-12-8-10-6-9h-10p-9h-10p-9h-10p-9h-10p-9h-10p-9h-10p-9h-10p-9h-10-|
A|------------------------------------------------------------------------------|
F|------------------------------------------------------------------------------|
C|------------------------------------------------------------------------------|
G|------------------------------------------------------------------------------|
C|------------------------------------------------------------------------------|
  
     |--3--|  |--3--|  |--3--|  |--3--|  |--3--|  |--3--|  |--3--|  |--3--|
     S  S  S  S  S  S  S  S  S  S  S  S  S  S  S  S  S  S  S  S  S  S  S  S
D|--17-13----------13-18-13----------------------------13-17-13----------13-|
A|--------15----15----------15----------------------15----------15----15----|
F|-----------14----------------14----------------14----------------14-------|
C|--------------------------------15----------15----------------------------|
G|-----------------------------------17-13-17-------------------------------|
C|--------------------------------------------------------------------------|
  
     |--3--|  |--3--|  |--3--|  |--3--|  |--3--|  |---3--|
     S  S  S  S  S  S  S  S  S  S  S  S  S  S  S  S   S  S Q
D|--17-13----------------------------13-17-13-------------------|
A|--------15----------------------15----------15----------------|
F|-----------14----------------14----------------14~--L--L-L----|
C|--------------15----------15----------------------------------|
G|-----------------17-13-17-------------------------------------|
C|--------------------------------------------------------------|

     No clue on this part
     |-----------3-----------|  |--3--|  |--3--|  |--3--|  |--3--|  |--3--|  |--3-
     S                    S  S  S  S  S  S  S  S  S  S  S  S  S  S  S  S  S  S  S
D|--17-------------------15-14----------------------------------------------------|
A|-----------------------------17-15-14----------17-15-14-------------------------|
F|--------------------------------------17-15-14----------17-15-14----------------|
C|-----------------------------------------------------------------17-15-13-------|
G|--------------------------------------------------------------------------17-15-|
C|--------------------------------------------------------------------------------|
  
     |--3--|  |--3--|  |--3--|  |--3--|  |--3--|
     S  S  S  S  S  S  S  S  S  S  S  S  S  S  S  Q.
D|--------------13-17-13----------13-17-13---------------|
A|-----------15----------15----15----------15------------|
F|--------14----------------14----------------14~-L------|
C|-----15------------------------------------------------|
G|--17---------------------------------------------------|
C|-------------------------------------------------------|

       PM PM       PM PM       PM PM       PM PM       PM PM       PM PM
    E  S  S  E  E  S  S  E  E  S  S     E  S  S  E  E  S  S  E  E  S  S
D|-----------------------------------|-----------------------------------|
A|-----------------------------------|-----------------------------------|
F|--9--------9--9--------9--9--------|--5--------5--5--------5--5--------|
C|--9--------9--9--------9--9--------|--5--------5--5--------5--5--------|
G|--7--7--7--7--7--7--7--7--7--7--7--|--3--3--3--3--3--3--3--3--3--3--3--|
C|-----------------------------------|-----------------------------------|

       PM PM       PM PM       PM PM       PM PM       PM PM       PM PM
    E  S  S  E  E  S  S  E  E  S  S     E  S  S  E  E  S  S  E  E  S  S
D|-----------------------------------|-----------------------------------|
A|-----------------------------------|-----------------------------------|
F|--2--------2--2--------2--2--------|--4--------4--4--------4--4--------|
C|--2--------2--2--------2--2--------|--4--------4--4--------4--4--------|
G|--0--0--0--0--0--0--0--0--0--0--0--|--2--2--2--2--2--2--2--2--2--2--2--|
C|-----------------------------------|-----------------------------------|

       PM PM       PM PM       PM PM       PM PM       PM PM       PM PM
    E  S  S  E  E  S  S  E  E  S  S     E  S  S  E  E  S  S  E  E  S  S
D|-----------------------------------|-----------------------------------|
A|-----------------------------------|-----------------------------------|
F|--9--------9--9--------9--9--------|--5--------5--5--------5--5--------|
C|--9--------9--9--------9--9--------|--5--------5--5--------5--5--------|
G|--7--7--7--7--7--7--7--7--7--7--7--|--3--3--3--3--3--3--3--3--3--3--3--|
C|-----------------------------------|-----------------------------------|

       PM PM       PM PM       PM PM       PM PM       PM PM       PM PM
    E  S  S  E  E  S  S  E  E  S  S     E  S  S  E  E  S  S  E  E  S  S
D|-----------------------------------|-----------------------------------|
A|-----------------------------------|-----------------------------------|
F|--2--------2--2--------2--2--------|--4--------4--4--------4--4--------|
C|--2--------2--2--------2--2--------|--4--------4--4--------4--4--------|
G|--0--0--0--0--0--0--0--0--0--0--0--|--2--2--2--2--2--2--2--2--2--2--2--|
C|-----------------------------------|-----------------------------------|

       PM PM    PM PM    PM       PM PM    PM PM
    E  E  E  E  E  E  E  E     E  E  E  E  E  E  S  S  E
D|--------------------------|-----------------------------|
A|--------------------------|-----------------------------|
F|--9--------9--------9-----|--5--------5--------5S-7S-5--|
C|--9--------9--------9-----|--5--------5--------5S-7S-5--|
G|--7--7--7--7--7--7--7--7--|--3--3--3--3--3--3--3S-5S-3--|
C|--------------------------|-----------------------------|

       PM PM    PM PM    PM       PM PM    PM PM
    E  E  E  E  E  E  E  E     E  E  E  E  E  E  S  S  E
D|--------------------------|-----------------------------|
A|--------------------------|-----------------------------|
F|--2--------2--------2-----|--4--------4--------4S-5S-4--|
C|--2--------2--------2-----|--4--------4--------4S-5S-4--|
G|--0--0--0--0--0--0--0--0--|--2--2--2--2--2--2--2S-3S-2--|
C|--------------------------|-----------------------------|

       PM PM    PM PM    PM       PM PM    PM PM
    E  E  E  E  E  E  E  E     E  E  E  E  E  E  S  S  E
D|--------------------------|-----------------------------|
A|--------------------------|-----------------------------|
F|--9--------9--------9-----|--5--------5--------5S-7S-5--|
C|--9--------9--------9-----|--5--------5--------5S-7S-5--|
G|--7--7--7--7--7--7--7--7--|--3--3--3--3--3--3--3S-5S-3--|
C|--------------------------|-----------------------------|

       PM PM    PM PM    PM       PM PM    PM PM
    E  E  E  E  E  E  E  E     E  E  E  E  E  E   Q
D|--------------------------|---------------------------|
A|--------------------------|---------------------------|
F|--2--------2--------2-----|--4--------4---------------|
C|--2--------2--------2-----|--4--------4---------------|
G|--0--0--0--0--0--0--0--0--|--2--2--2--2--2--2---------|
C|--------------------------|--------------------/8\----|

    E  E  E  E  E  E  E  E  E  E  E  E     E   E   E   E   E   E   E   E
D|--------------------------------------|---------------------------------|
A|--------------------------------------|---------10--13----------13--16--|
F|--------------------------------------|--8--11----------11--14----------|
C|--------------------------------------|---------------------------------|
G|--------------5--4--------5--4--------|---------------------------------|
C|--5--4--5--4--------5--4--------5--4--|---------------------------------|

    E  E  E  E  E  E  E  E  E  E     E   E   E  E   E  E   E   E
D|--------------------------------|-------------8--11--8--11--14--|
A|--------------------------------|---------10--------------------|
F|--------------------------------|--8--11------------------------|
C|--------------------------------|-------------------------------|
G|--------------5--4--------5--4--|-------------------------------|
C|--5--4--5--4--------5--4--------|-------------------------------|

     E   E   E   E   E   E
D|--11--14--17--14----------|---------|---------|---------|
A|------------------16------|---------|---------|---------|
F|----------------------17--|---------|---------|---------|
C|--------------------------|---------|---------|---------|
G|--------------------------|---------|---------|---------|
C|--------------------------|---------|---------|---------|

    PM PM PM PM                   PM PM PM
    E  E  E  E  E  E  E  E     E  E  E  E  E  E  E  E     E  E  E  E
D|--------------------------|--------------------------|--------------|
A|--------------------------|--------------------------|--------------|
F|--------------------------|--------------------------|--------------|
C|--------------1--2--1--2--|--------------1--2-----1--|--2-----------|
G|--0--2--1--2--1--2--1--2--|-----2--1--2--1--2--5--1--|--2--5--4--2--|
C|--0--2--1--2--------------|-----2--1--2--------5-----|-----5--4--2--|

    TP TP TP TP TP TP TP TP    TP TP TP TP TP TP TP TP    TP TP TP TP
    E  E  E  E  E  E  E  E     E  E  E  E  E  E  E  E     E  E  E  E
D|--------------------------|--------------------------|--------------|
A|--------------------------|--------------------------|--------------|
F|--------------------------|--------------------------|--------------|
C|--------------------------|--------------------------|--------------|
G|--------------1--2--1--2--|--------------1--2-----1--|--2-----------|
C|--0--2--1--2--------------|--0--2--1--2--------5-----|-----5--4--2--|

    TP TP TP TP TP TP TP TP    TP TP TP TP TP TP TP TP    TP TP TP TP
    E  E  E  E  E  E  E  E     E  E  E  E  E  E  E  E     E  E  E  E
D|--------------------------|--------------------------|--------------|-----|
A|--------------------------|--------------------------|--------------|-----|
F|--------------------------|--------------------------|--------------|-----|
C|--------------------------|--------------------------|--------------|-----|
G|--------------1--2--1--2--|--------------1--2-----1--|--2-----------|-----|
C|--0--2--1--2--------------|--0--2--1--2--------5-----|-----5--4--2--|-----|

    PM PM PM PM                   PM PM PM
    E  E  E  E  E  E  E  E     E  E  E  E  E  E  E  E     E  E  E  E
D|--------------------------|--------------------------|--------------|
A|--------------------------|--------------------------|--------------|
F|--------------------------|--------------------------|--------------|
C|--------------------------|--------------------------|--------------|
G|--0--2--1--2--5-----------|-----2--1--2--5--------5--|--------------|
C|--0--2--1--2-----8--7--5--|-----2--1--2-----8--7-----|--8--7--8--7--|

    PM PM PM PM                   PM PM PM
    E  E  E  E  E  E  E  E     E  E  E  E  E  E  E  E     E  E  E  E
D|--------------------------|--------------------------|--------------|
A|--------------------------|--------------------------|--------------|
F|--------------------------|--------------------------|--------------|
C|--------------------------|--------------------------|--------------|
G|--0--2--1--2--5-----------|-----2--1--2--5--------5--|--------------|
C|--0--2--1--2-----8--7--5--|-----2--1--2-----8--7-----|--8--7--8--7--|

    PM
    S  Q.     S
D|--------------||
A|--------------||
F|--------------||
C|--------------||
G|--0-----------||
C|--0-----------||


Chris
                          PM PM PM PM PM PM PM PM PM PM PM PM
     W                    S  S  S  S  S  S  S  S  S  S  S  S  S  S S  S
D|--------------------|------------------------------------------------|
A|--------------------|------------------------------------------------|
F|--------------------|------------------------------------------------|
C|--------------------|------------------------------------------------|
G|--------------------|------------------------------------------------|
C|--8~----------------|--8--7--5--5--8--7--5--5--8--7--5--5--8-10-7-10-|

    PM PM PM PM PM PM PM PM
    S  S  S  S  S  S  S  S  S  S S S S  S S S
D|--------------------------------------------|
A|--------------------------------------------|
F|--------------------------------------------|
C|-----------------------------------7-10-----|
G|-------------------------------6-9------6-9-|
C|--8--7--5--5--8--7--5--5--7-10--------------|

    PM PM PM PM PM PM PM PM PM PM PM PM
    S  S  S  S  S  S  S  S  S  S  S  S  S  S S  S
D|------------------------------------------------|
A|------------------------------------------------|
F|------------------------------------------------|
C|------------------------------------------------|
G|------------------------------------------------|
C|--8--7--5--5--8--7--5--5--8--7--5--5--8-10-7-10-|

    PM PM PM PM PM PM PM PM
    S  S  S  S  S  S  S  S  E  E  E  E
D|--------------------------------------|
A|--------------------------------------|
F|--------------------------------------|
C|--------------------------------------|
G|--------------------------------------|
C|--8--7--5--5--8--7--5--5--7--5--4--1--|

    PM PM PM             PM PM PM
             |-3-| |-3-|          |-3-| |-3-|
    E  S  S  S S S S S S E  S  S  S S S S S S
D|--------------------------------------------|
A|--------------------------------------------|
F|--------------------------------------------|
C|--------------------------------------------|
G|-----------------3-4-6----------------3-5-6-|
C|--3--3--3--3-4-6-------3--3--3--3-4-6-------|

       PM PM PM PM PM PM PM PM PM
                                  |-3-| |-3-|
    E  S  S  S  S  S  S  E  S  S  S S S S S S
D|--------------------------------------------|
A|--------------------------------------------|
F|--------------------------------------------|
C|--3-----------------------------------------|
G|--------------------------------------3-5-6-|
C|-----3--3--3--3--3--3--3--3--3--3-4-6-------|

    PM PM PM             PM PM PM
             |-3-| |-3-|          |-3-| |-3-|
    E  S  S  S S S S S S E  S  S  S S S S S S
D|--------------------------------------------|
A|--------------------------------------------|
F|--------------------------------------------|
C|--------------------------------------------|
G|-----------------3-4-6----------------3-5-6-|
C|--3--3--3--3-4-6-------3--3--3--3-4-6-------|

       PM PM PM PM PM PM PM PM PM
                                  |-3-| |-3-|
    E  S  S  S  S  S  S  E  S  S  S S S S S S
D|--------------------------------------------|
A|--------------------------------------------|
F|--------------------------------------------|
C|--3-----------------------------------------|
G|--------------------------------------3-5-6-|
C|-----3--3--3--3--3--3--3--3--3--3-4-6-------|

    PM PM PM             PM PM PM
             |-3-| |-3-|          |-3-| |-3-|
    E  S  S  S S S S S S E  S  S  S S S S S S
D|--------------------------------------------|
A|--------------------------------------------|
F|--------------------------------------------|
C|--------------------------------------------|
G|-----------------3-4-6----------------3-5-6-|
C|--3--3--3--3-4-6-------3--3--3--3-4-6-------|

       PM PM PM PM PM PM PM PM PM
                                  |-3-| |-3-|
    E  S  S  S  S  S  S  E  S  S  S S S S S S
D|--------------------------------------------|
A|--------------------------------------------|
F|--------------------------------------------|
C|--3-----------------------------------------|
G|--------------------------------------3-5-6-|
C|-----3--3--3--3--3--3--3--3--3--3-4-6-------|

    PM PM PM             PM PM PM
             |-3-| |-3-|          |-3-| |-3-|
    E  S  S  S S S S S S E  S  S  S S S S S S
D|--------------------------------------------|
A|--------------------------------------------|
F|--------------------------------------------|
C|--------------------------------------------|
G|-----------------3-4-6----------------3-5-6-|
C|--3--3--3--3-4-6-------3--3--3--3-4-6-------|

       PM PM PM PM PM PM PM PM PM                                PM PM
                                  |-3-| |-3-|
    E  S  S  S  S  S  S  E  S  S  S S S S S S    Q    Q    E  E  E  E
D|--------------------------------------------|------------------------|
A|--------------------------------------------|------------------------|
F|--------------------------------------------|------------------------|
C|--3-----------------------------------------|------------------------|
G|--------------------------------------3-5-6-|------------------------|
C|-----3--3--3--3--3--3--3--3--3--3-4-6-------|--5----4----5--4--1--0--|

                    PM PM                    PM PM                    PM PM
    Q    Q    E  E  E  E     Q    Q    E  E  E  E     Q    Q    E  E  E  E
D|------------------------|------------------------|------------------------|
A|------------------------|------------------------|------------------------|
F|------------------------|------------------------|------------------------|
C|------------------------|------------------------|------------------------|
G|------------------------|------------------------|------------------------|
C|--8----7----8--7--5--4--|--5----4----5--4--1--0--|--8----7----8--7--5--4--|

    TP   TP   TP TP TP TP    TP   TP   TP TP TP TP    TP   TP   TP TP TP TP
    Q    Q    E  E  E  E     Q    Q    E  E  E  E     Q    Q    E  E  E  E
D|------------------------|------------------------|------------------------|
A|------------------------|------------------------|------------------------|
F|------------------------|------------------------|------------------------|
C|------------------------|------------------------|------------------------|
G|------------------------|------------------------|------------------------|
C|--5----4----5--4--1--0--|--8----7----8--7--5--4--|--5----4----5--4--1--0--|

    TP   TP   TP TP TP TP    PM PM PM PM PM PM PM PM PM PM PM PM
    Q    Q    E  E  E  E     S  S  S  S  S  S  S  S  S  S  S  S  S  S S  S
D|------------------------|------------------------------------------------|
A|------------------------|------------------------------------------------|
F|------------------------|------------------------------------------------|
C|------------------------|------------------------------------------------|
G|------------------------|------------------------------------------------|
C|--8----7----8--7--5--4--|--8--7--5--5--8--7--5--5--8--7--5--5--8-10-7-10-|

    PM PM PM PM PM PM PM PM
    S  S  S  S  S  S  S  S  S  S S S S  S S S
D|--------------------------------------------|
A|--------------------------------------------|
F|--------------------------------------------|
C|-----------------------------------7-10-----|
G|-------------------------------6-9------9-6-|
C|--8--7--5--5--8--7--5--5--7-10--------------|

    PM PM PM PM PM PM PM PM PM PM PM PM
    S  S  S  S  S  S  S  S  S  S  S  S  S  S S  S
D|------------------------------------------------|
A|------------------------------------------------|
F|------------------------------------------------|
C|------------------------------------------------|
G|------------------------------------------------|
C|--8--7--5--5--8--7--5--5--8--7--5--5--8-10-7-10-|

    PM PM PM PM PM PM PM PM
    S  S  S  S  S  S  S  S  E  E  E  E
D|--------------------------------------|
A|--------------------------------------|
F|--------------------------------------|
C|--------------------------------------|
G|--------------------------------------|
C|--8--7--5--5--8--7--5--5--7--5--4--1--|

    PM PM PM             PM PM PM
             |-3-| |-3-|          |-3-| |-3-|
    E  S  S  S S S S S S E  S  S  S S S S S S
D|--------------------------------------------|
A|--------------------------------------------|
F|--------------------------------------------|
C|--------------------------------------------|
G|-----------------3-4-6----------------3-5-6-|
C|--3--3--3--3-4-6-------3--3--3--3-4-6-------|

       PM PM PM PM PM PM PM PM PM
                                  |-3-| |-3-|
    E  S  S  S  S  S  S  E  S  S  S S S S S S
D|--------------------------------------------|
A|--------------------------------------------|
F|--------------------------------------------|
C|--3-----------------------------------------|
G|--------------------------------------3-5-6-|
C|-----3--3--3--3--3--3--3--3--3--3-4-6-------|

    PM PM PM             PM PM PM
             |-3-| |-3-|          |-3-| |-3-|
    E  S  S  S S S S S S E  S  S  S S S S S S
D|--------------------------------------------|
A|--------------------------------------------|
F|--------------------------------------------|
C|--------------------------------------------|
G|-----------------3-4-6----------------3-5-6-|
C|--3--3--3--3-4-6-------3--3--3--3-4-6-------|

       PM PM PM PM PM PM PM PM PM
                                  |-3-| |-3-|
    E  S  S  S  S  S  S  E  S  S  S S S S S S
D|--------------------------------------------|
A|--------------------------------------------|
F|--------------------------------------------|
C|--3-----------------------------------------|
G|--------------------------------------3-5-6-|
C|-----3--3--3--3--3--3--3--3--3--3-4-6-------|

    PM PM PM             PM PM PM
             |-3-| |-3-|          |-3-| |-3-|
    E  S  S  S S S S S S E  S  S  S S S S S S
D|--------------------------------------------|
A|--------------------------------------------|
F|--------------------------------------------|
C|--------------------------------------------|
G|-----------------3-4-6----------------3-5-6-|
C|--3--3--3--3-4-6-------3--3--3--3-4-6-------|

       PM PM PM PM PM PM PM PM PM
                                  |-3-| |-3-|
    E  S  S  S  S  S  S  E  S  S  S S S S S S
D|--------------------------------------------|
A|--------------------------------------------|
F|--------------------------------------------|
C|--3-----------------------------------------|
G|--------------------------------------3-5-6-|
C|-----3--3--3--3--3--3--3--3--3--3-4-6-------|


    PM PM PM             PM PM PM
             |-3-| |-3-|          |-3-| |-3-|
    E  S  S  S S S S S S E  S  S  S S S S S S
D|--------------------------------------------|
A|--------------------------------------------|
F|--------------------------------------------|
C|--------------------------------------------|
G|-----------------3-4-6----------------3-5-6-|
C|--3--3--3--3-4-6-------3--3--3--3-4-6-------|

       PM PM PM PM PM PM PM PM PM
                                  |-3-| |-3-|
    E  S  S  S  S  S  S  E  S  S  S S S S S S    Q    Q    Q    Q
D|--------------------------------------------|----------------------|
A|--------------------------------------------|----------------------|
F|--------------------------------------------|----------------------|
C|--3-----------------------------------------|----------------------|
G|--------------------------------------3-5-6-|----------------------|
C|-----3--3--3--3--3--3--3--3--3--3-4-6-------|--5----4----5----4----|

    S S S S S S S S S S S S S S S S    S S S S S S S S S S S S S S S S
D|----------------------------------|----------------------------------|
A|----------------------------------|----------------------------------|
F|----------------------------------|----------------------------------|
C|----------8-5-------------8-5-----|----------8-5---------------------|
G|------4-7-----7-4-----4-7-----7-4-|------4-7-----7-4-----------------|
C|--5-8-------------5-8-------------|--5-8-------------5-5-5-5-5-5-5-5-|

    S S S S S S S S S S S S S S S S    S S S S S S S S S S S S S S S S
D|----------------------------------|----------------------------------|
A|----------------------------------|----------------------------------|
F|----------------------------------|----------------------------------|
C|----------8-5-------------8-5-----|----------8-5---------------------|
G|------4-7-----7-4-----4-7-----7-4-|------4-7-----7-4-----------------|
C|--5-8-------------5-8-------------|--5-8-------------5-5-5-5-5-5-5-5-|

    S  S S S  S S S S S  S S S  S S S S    S  S S S  S S S S S S S S S S S S
D|--------------------------------------|------------------------------------|
A|--------------------------------------|------------------------------------|
F|--------------------------------------|------------------------------------|
C|-----------10-7--------------10-7-----|-----------10-7---------------------|
G|-------6-9------9-6------6-9------9-6-|-------6-9------9-6-----------------|
C|--7-10--------------7-10--------------|--7-10--------------7-7-7-7-7-7-7-7-|

    S  S S S  S S S S S  S S S  S S S S    S  S S S  S S S S S S S S S S S S
D|--------------------------------------|------------------------------------|
A|--------------------------------------|------------------------------------|
F|--------------------------------------|------------------------------------|
C|-----------10-7--------------10-7-----|-----------10-7---------------------|
G|-------6-9------9-6------6-9------9-6-|-------6-9------9-6-----------------|
C|--7-10--------------7-10--------------|--7-10--------------7-7-7-7-7-7-7-7-|

                                                                PM
    S  S S  S S  S  S  S S  S  S  S  S  S  S S    S S S S S S S S  H
D|---------------------------------------------|-----------------------------|
A|----------------------------------12-15------|-----------------------------|
F|-----------------10-13------10-13-------10-7-|-----------------------------|
C|------------9-12-------9-12------------------|--9-6------------------------|
G|-------8-11----------------------------------|------8-5-3-0----------------|
C|--9-12---------------------------------------|--------------4-1--1~--------|

    PM PM PM PM                   PM PM PM
    E  E  E  E  E  E  E  E     E  E  E  E  E  E  E  E     E  E  E  E
D|--------------------------|--------------------------|--------------|
A|--------------------------|--------------------------|--------------|
F|--------------------------|--------------------------|--------------|
C|--------------------------|--------------------------|--------------|
G|--0--2--1--2--2-----------|-----2--1--2--2--------2--|--------2-----|
C|--0--2--1--2-----5--4--2--|-----2--1--2-----5--4-----|--5--4-----5--|

    PM PM PM PM                   PM PM PM
    E  E  E  E  E  E  E  E     E  E  E  E  E  E  E  E     E  E  E  E
D|--------------------------|--------------------------|--------------|
A|--------------------------|--------------------------|--------------|
F|--------------------------|--------------------------|--------------|
C|--------------------------|--------------------------|--------------|
G|--0--2--1--2--2-----------|-----2--1--2--2--------2--|--------2-----|
C|--0--2--1--2-----5--4--2--|-----2--1--2-----5--4-----|--5--4-----5--|

     PM PM PM PM                   PM PM PM
     E  E  E  E  E  E  E  E     E  E  E  E  E  E  E  E     E  E  E  E
D|---------------------------|--------------------------|--------------|
A|---------------------------|--------------------------|--------------|
F|*--------------------------|--------------------------|--------------|
C|*--------------1--2--1-----|--------------1--2-----1--|--2-----------|
G|---0--2--1--2--1--2--1--3--|-----2--1--2--1--2--3--1--|--2--3--2--0--|
C|---0--2--1--2-----------5--|-----2--1--2--------5-----|-----5--4--2--|

    PM PM PM PM                   PM PM PM
    E  E  E  E  E  E  E  E     E  E  E  E  E  E  E  E     E  E  E  E   3x
D|--------------------------|--------------------------|---------------||
A|--------------------------|--------------------------|---------------||
F|--------------------------|--------------------------|--------------*||
C|--------------1--2--1-----|--------------1--2-----1--|--2-----------*||
G|--0--2--1--2--1--2--1--3--|-----2--1--2--1--2--3--1--|--2--3--2--0---||
C|--0--2--1--2-----------5--|-----2--1--2--------5-----|-----5--4--2---||

    TP   TP   TP   TP      TP   TP   TP   TP      TP   TP   TP   TP
    Q    Q    Q    Q       Q    Q    Q    Q       Q    Q    Q    Q
D|----------------------|----------------------|----------------------|
A|----------------------|----------------------|----------------------|
F|----------------------|----------------------|----------------------|
C|----------------------|----------------------|----------------------|
G|----------------------|----------------------|----------------------|
C|--5----8----7----4----|--5----8----7----4----|--5----8----7----4----|

    H         H            H        H           W
D|----------------------|--------------------|-------------------|
A|----------------------|--------------------|-------------------|
F|----------------------|--------------------|-------------------|
C|----------------------|--5--------7--------|--8----------------|
G|----------------------|--5--------7--------|--8----------------|
C|--5~--------1~--------|--5--------7--------|--8----------------|

                  PM PM
    H        Q    E  E     W                   H        H
D|----------------------|-------------------|--------------------|
A|----------------------|-------------------|--------------------|
F|----------------------|-------------------|--------------------|
C|----------------------|--0----------------|--5--------7--------|
G|--5--------4----1--4--|--0----------------|--5--------7--------|
C|--5--------4----1--4--|--0----------------|--5--------7--------|

                                       PM PM
     W                   H        Q    E  E     W
D|--------------------|----------------------|-------------------|
A|--------------------|----------------------|-------------------|
F|--------------------|----------------------|-------------------|
C|--11----------------|----------------------|--0----------------|
G|--11----------------|--5--------4----1--4--|--0----------------|
C|--11----------------|--5--------4----1--4--|--0----------------|
  
     |--6--|  |--6--|  |--6--|  |--6--|  |--6--|  |--6--|  |--6--|  |--6--|
     S  S  S  S  S  S  S  S  S  S  S  S  S  S  S  S  S  S  S  S  S  S  S  S
D|-----------------15-19-15----------15-19-15----------------------15-19-15-|
A|--------------17----------17----17----------17----------------17----------|
F|-----------16----------------16----------------16----------16-------------|
C|--------17----------------------------------------17----17----------------|
G|--15-19----------------------------------------------19-------------------|
C|--------------------------------------------------------------------------|
  
     |--6--|  |--6--|  |--6--|  |--6--|  |--6--|  |--6--|  |--6--|  |--6--|
     S  S  S  S  S  S  S  S  S  S  S  S  S  S  S  S  S  S  S  S  S  S  S  S
D|--14-17-14----------14-17-14----------------------14-17-14----------14-17-|
A|-----------15----15----------15----------------15----------15----15-------|
F|--------------14----------------14----------14----------------14----------|
C|-----------------------------------16----16-------------------------------|
G|--------------------------------------17----------------------------------|
C|--------------------------------------------------------------------------|
  
     |--6--|  |--6--|  |--6--|  |--6--|  |--6--|  |--6--|  |--6--|  |--6--|
     S  S  S  S  S  S  S  S  S  S  S  S  S  S  S  S  S  S  S  S  S  S  S  S
D|--12-15-12----------12-15-12----------------------12-15-12----------12-15-|
A|-----------13----13----------13----------------13----------13----13-------|
F|--------------12----------------12----------12----------------12----------|
C|-----------------------------------14----14-------------------------------|
G|--------------------------------------15----------------------------------|
C|--------------------------------------------------------------------------|
  
     |--6--|  |--6--|  |--6--|
     S  S  S  S  S  S  S  S  S  S  S  S  S  S  S  S  S  S  S
D|--14-11----------11-14-11----18-14-17-14-18-14-20-14-18-14-|
A|--------12----12----------12-------------------------------|
F|-----------11----------------------------------------------|
C|-----------------------------------------------------------|
G|-----------------------------------------------------------|
C|-----------------------------------------------------------|
  
     |--6--|  |----6---|  |----6---|  |----6---|  |--6--|  |--6--|  |--6--|  |--6-
     S  S  S  S  S  T  T  T  T  S  S  S  S  T  T  S  S  S  S  S  S  S  S  S  T  T
D|-----------------15-19-24-19-15----------15-19-24-15----------------------15-19-|
A|--------------17----------------17----17-------------17----------------17-------|
F|-----------16----------------------16-------------------16----------16----------|
C|--------17-------------------------------------------------17----17-------------|
G|--15-19-------------------------------------------------------19----------------|
C|--------------------------------------------------------------------------------|
  
     |--6--|  |--|  |--6--|  |--6--|  |--|  |--6--|  |--6--|  |--|  |--6--|  |--6-
     T  T  T  T  S  S  S  S  T  T  T  T  S  S  S  S  S  S  S  S  T  T  T  T  S  S
D|--14-17-22-17-14----------14-17-22-17-14----------------------14-17-22-17-14----|
A|-----------------15----15----------------15----------------15----------------15-|
F|--------------------14----------------------14----------14----------------------|
C|-----------------------------------------------16----16-------------------------|
G|--------------------------------------------------17----------------------------|
C|--------------------------------------------------------------------------------|
  
     |--6--|  |--|  |--6--|  |--6--|  |--|  |--6--|  |--6--|  |--|  |--6--|  |--6-
     T  T  T  T  S  S  S  S  T  T  T  T  S  S  S  S  S  S  S  S  T  T  T  T  S  S
D|--12-15-20-15-12----------12-15-20-15-12----------------------12-15-20-15-12----|
A|-----------------13----13----------------13----------------13----------------13-|
F|--------------------12----------------------12----------12----------------------|
C|-----------------------------------------------14----14-------------------------|
G|--------------------------------------------------15----------------------------|
C|--------------------------------------------------------------------------------|
  
     |--6--|  |--|  |----6---|  |----6---|
     T  T  T  T  S  S  S  T  T  T  T  S  S  S  S  S  S  S  S  S  S  S S
D|--14-18-14-11----------11-14-18-14-11----18-14-17-14-18-14-20-14-18-L\-|
A|--------------12----12----------------12-------------------------------|
F|-----------------11----------------------------------------------------|
C|-----------------------------------------------------------------------|
G|-----------------------------------------------------------------------|
C|-----------------------------------------------------------------------|
  
     |--3--|  |--3--|  |--3--|  |--3-|  |--3--|  |--3--|  |--3--|
     S  S  S  S  S  S  S  S  S  S  S S  S  S  S  S  S  S  S  S  S  S  S
D|--15-13-12------------------------------------------------------------|
A|-----------15-14-12---------------------------------------------------|
F|--------------------15-14-12-14b-L-L--L--L--L----------15-14-12-12-14-|
C|----------------------------------------------15-13-12----------------|
G|----------------------------------------------------------------------|
C|----------------------------------------------------------------------|

     Q.       S   S   H
D|------------------------------|
A|------------------------------|
F|--14b------14S-12S-14~--------|
C|------------------------------|
G|------------------------------|
C|------------------------------|
  
     |--3--|  |--3--|  |--3--|  |--3--|  |--3--|  |--3--|  |--3--|  |--3--|
     S  S  S  S  S  S  S  S  S  S  S  S  S  S  S  S  S  S  S  S  S  S  S  S
D|--15-13-12-13-12----------------------------------------------------------|
A|-----------------15-14-12----------------12-------------------------------|
F|--------------------------15-14-12-14-15----15-14-12----------------------|
C|-----------------------------------------------------15-14-12-------------|
G|--------------------------------------------------------------15-14-12-14-|
C|--------------------------------------------------------------------------|
  
     |--3--|  |--3--|  |--3--|  |--3--|
     S  S  S  S  S  S  S  S  S  S  S  S  H
D|-------------------------------------------------|
A|-------------------------------------------------|
F|-------------------------------------------------|
C|--15-14-12---------------------------------------|
G|-----------15-14-12-14-12----------12-14~--------|
C|--------------------------15-14-15---------------|

     X  X  X  X  X  X  X  X  X  X  X  X  X  X  X  X  X  X  X  X  X  X  X  X  X  X
D|--17-12-17-15-17-12-17-15-17-12-17-15-17-12-17-15-17-12-17-15-17-12-17-15-17-12-|
A|--------------------------------------------------------------------------------|
F|--------------------------------------------------------------------------------|
C|--------------------------------------------------------------------------------|
G|--------------------------------------------------------------------------------|
C|--------------------------------------------------------------------------------|

     X  X  X  X  X  X  X  X  X  X  X  X  X  X  X  X  X  X  X  X  X  X  X  X  X  X
D|--20-12-20-15-20-12-20-15-20-12-20-15-20-12-20-15-20-12-20-15-20-12-20-15-20-12-|
A|--------------------------------------------------------------------------------|
F|--------------------------------------------------------------------------------|
C|--------------------------------------------------------------------------------|
G|--------------------------------------------------------------------------------|
C|--------------------------------------------------------------------------------|

     X  X  X  X  X  X  X  X  X  X  X  X  X  X  X  X  X  X  X  X  X  X  X  X  X  X
D|--17-12-17-15-17-12-17-15-17-12-17-15-17-12-17-15-19-12-19-15-19-12-19-15-19-12-|
A|--------------------------------------------------------------------------------|
F|--------------------------------------------------------------------------------|
C|--------------------------------------------------------------------------------|
G|--------------------------------------------------------------------------------|
C|--------------------------------------------------------------------------------|

     X  X  X  X  X  X  X  X  X  X  X  X  X  X  X  X  X  X  X  X  X  X  X  X  X  X
D|--17-12-17-15-17-12-17-15-17-12-17-15-17-12-17-15-19-12-19-15-19-12-19-15-19-12-|
A|--------------------------------------------------------------------------------|
F|--------------------------------------------------------------------------------|
C|--------------------------------------------------------------------------------|
G|--------------------------------------------------------------------------------|
C|--------------------------------------------------------------------------------|

    E  E  E  E  E  E  E  E  E  E  E  E     E  E  E  E  E   E   E  E
D|--------------------------------------|-----------5-------------8--|
A|--------------------------------------|--------7------------10-----|
F|--------------------------------------|--5--8--------8--11---------|
C|--------------------------------------|----------------------------|
G|--------------2--1--------2--1--------|----------------------------|
C|--2--1--2--1--------2--1--------2--1--|----------------------------|

    E  E  E  E  E  E  E  E  E  E     E  E  E  E  E  E  E   E
D|--------------------------------|-----------5--8--5--8--11--|
A|--------------------------------|--------7------------------|
F|--------------------------------|--5--8---------------------|
C|--------------------------------|---------------------------|
G|--------------2--1--------2--1--|---------------------------|
C|--2--1--2--1--------2--1--------|---------------------------|

                               PM PM PM PM
    E   E   E   E   E   E      E  E  E  E  E  E  E  E
D|--8--11--14--11-----------|--------------------------|
A|-----------------13-------|--------------------------|
F|---------------------14\--|--------------------------|
C|--------------------------|--------------1--2--1--2--|
G|--------------------------|--0--2--1--2--1--2--1--2--|
C|--------------------------|--0--2--1--2--------------|

       PM PM PM                               PM PM PM PM
    E  E  E  E  E  E  E  E     E  E  E  E     E  E  E  E  E  E  E  E
D|--------------------------|--------------|--------------------------|
A|--------------------------|--------------|--------------------------|
F|--------------------------|--------------|--------------------------|
C|--------------1--2-----1--|--2-----------|--------------1--2--1--2--|
G|-----2--1--2--1--2--5--1--|--2--5--4--2--|--0--2--1--2--1--2--1--2--|
C|-----2--1--2--------5-----|-----5--4--2--|--0--2--1--2--------------|

       PM PM PM                               TP TP TP TP TP TP TP TP
    E  E  E  E  E  E  E  E     E  E  E  E     E  E  E  E  E  E  E  E
D|--------------------------|--------------|--------------------------|
A|--------------------------|--------------|--------------------------|
F|--------------------------|--------------|--------------------------|
C|--------------1--2-----1--|--2-----------|--------------------------|
G|-----2--1--2--1--2--5--1--|--2--5--4--2--|--------------1--2--1--2--|
C|-----2--1--2--------5-----|-----5--4--2--|--0--2--1--2--------------|

    TP TP TP TP TP TP TP TP    TP TP TP TP    TP TP TP TP TP TP TP TP
    E  E  E  E  E  E  E  E     E  E  E  E     E  E  E  E  E  E  E  E
D|--------------------------|--------------|--------------------------|
A|--------------------------|--------------|--------------------------|
F|--------------------------|--------------|--------------------------|
C|--------------------------|--------------|--------------------------|
G|--------------1--2-----1--|--2-----------|--------------1--2--1--2--|
C|--0--2--1--2--------5-----|-----5--4--2--|--0--2--1--2--------------|

    TP TP TP TP TP TP TP TP    TP TP TP TP          PM PM PM PM
    E  E  E  E  E  E  E  E     E  E  E  E           E  E  E  E  E  E  E  E
D|--------------------------|--------------|-----|--------------------------|
A|--------------------------|--------------|-----|--------------------------|
F|--------------------------|--------------|-----|--------------------------|
C|--------------------------|--------------|-----|--------------------------|
G|--------------1--2-----1--|--2-----------|-----|--0--2--1--2--2-----------|
C|--0--2--1--2--------5-----|-----5--4--2--|-----|--0--2--1--2-----5--4--2--|

       PM PM PM                               PM PM PM PM
    E  E  E  E  E  E  E  E     E  E  E  E     E  E  E  E  E  E  E  E
D|--------------------------|--------------|--------------------------|
A|--------------------------|--------------|--------------------------|
F|--------------------------|--------------|--------------------------|
C|--------------------------|--------------|--------------------------|
G|-----2--1--2--2--------2--|--------------|--0--2--1--2--2-----------|
C|-----2--1--2-----5--4-----|--5--4--5--4--|--0--2--1--2-----5--4--2--|

       PM PM PM                               PM
    E  E  E  E  E  E  E  E     E  E  E  E     S  Q.     S
D|--------------------------|--------------|--------------||
A|--------------------------|--------------|--------------||
F|--------------------------|--------------|--------------||
C|--------------------------|--------------|--------------||
G|-----2--1--2--2--------2--|--------------|--0-----------||
C|-----2--1--2-----5--4-----|--5--4--5--4--|--0-----------||



************************************

| ~   Vibrato
| PM  Palm mute
| tp  Tremolo picking
| *   Natural harmonic
| h   Hammer-on
| p   Pull-off
| /   Slide up
| \   Slide down
| b   Bend

************************************

            
            
Suggest correction
Creating personal tab
Creating personal tab
You can edit any tab online and save it as your Personal.

You can edit, replace or remove any tab part or add personal notes – all changes will be seen only by you.

Personal tabs can be accessed anytime from any device, even offline.
Learn more »
Give kudos to tab author, rate the tab!
1 2 3 4 5
comments
print report bad tab
guest
You may want to rate the tab now too:
select rating
Wanna post a correction for this tab? Suggest correction