Oops, an error
Loading. Please wait.
We have an official Lost Wisdom tab made by UG professional guitarists. Check out the tab »
×
by Burzum
5,061 views 1 this week
1 commentread comment
1 2 3 4 5
1 last vote to show rating
add to favorites
×
Save as Personal and add changes to this tab that will be seen only by you. Learn more ›
×
You can save this tab as Personal to edit and correct it or add notes. All changes will be seen only by you. Learn more »
launch autoscroll
font size
0
reset
guitar tuner
backing track
0:00
0:00
edit
Autoscroll
slow
fast
+/-
esc
set tempo
stop
This is Lost Wisdom by, one of the greastest Black Metal ever, Burzum, of the Det
Som Engang Var album, written by Varg Vikernes.
Time:4:39
Tabbed By: Welcome to Hell

  RIFF 1
G|--------------------|--------------|
D|--------------------|--------------|
A|---2----------------|---2----------|
E|-0--0-3--0-0--0-3-4-|-0---0-3-1--2-|
 Make sure to Bend the F#(the last note, 2nd fret on the E string)

  RIFF 2
G|------------|-------------|
D|------------|-------------|
A|------------|-------------|
E|-0----------|-------------|
  Let E ring while the guitar plays

  RIFF 3
G|-------------------|-------------------|
D|-------------------|-------------------|
A|-2-2-2-2-2-2-2-2\3-|-3-3-3-3-3-3-3-3\2-|
E|-------------------|-------------------|


  RIFF 4
G|-----------|-----------|
D|-----------|-----------|
A|-----------|-----------|
E|-----------|-0---------|



  RIFF 5
G|------------------|------------------|
D|------------------|------------------|
A|-2-3-2--3-2-------|-2-3-2--3-2-------|
E|------------2-3-5-|------------2-5-3-|


  RIFF 6
G|-----------|-------------|
D|-2---------|-2-----------|
A|---3-------|---3---------|
E|-----2-3-5-|-----2-3-2-3-|


  RIFF 7
G|-----------------------------------|
D|-----------------------------------|
A|-2-2-2-2h3-5-5-5-5p4-4-4-4-4-4-5-4-|
E|-----------------------------------|

  END
G|-----|
D|-----|
A|-2---|
E|-----|
Let B ring 


ORDER OF RIFFS
RIFF 1 two times
RIFF 2
RIFF 3 six times
RIFF 1 two times 
RIFF 3 six times
RIFF 4
RIFF 5 two times
RIFF 6 two times
RIFF 7 four times
RIFF 1 two times
RIFF 2 
RIFF 3 six times
END

            
            
Suggest correction
Creating personal tab
Creating personal tab
You can edit any tab online and save it as your Personal.

You can edit, replace or remove any tab part or add personal notes – all changes will be seen only by you.

Personal tabs can be accessed anytime from any device, even offline.
Learn more »
Give kudos to tab author, rate the tab!
1 2 3 4 5
comments
print report bad tab
1 comment total.
0 reply
Fluoxetine 290 Mar 04, 2012 05:54 AM

Nice Bass Tab Dude :)

guest
You may want to rate the tab now too:
select rating
Wanna post a correction for this tab? Suggest correction