Oops, an error
Loading. Please wait.

The O-Men tab

version 2
version 2

Whole song

120 views 3 this week
no commentswrite comment
1 2 3 4 5
3 more votes to show rating
add to favorites
×
Save as Personal and add changes to this tab that will be seen only by you. Learn more ›
×
You can save this tab as Personal to edit and correct it or add notes. All changes will be seen only by you. Learn more »
launch autoscroll
font size
0
reset
how to read this tab
guitar tuner
edit
Autoscroll
slow
fast
+/-
esc
set tempo
stop
Author
-------------------------------------------------------------------------------
                             THE O-MEN - Butthole Surfers
-------------------------------------------------------------------------------
Tabbed by: Ritik
E-mail: ritikrao@hotmail.com

Tuning:
--------------------------------------------------------

Intro

e|----------------------------|
B|----------------------------|
G|------------------9-9--3----|
D|------------------9-9--3----|
A|------------------7-7--1----|
E|-0-0-0-0-0-0-0-0------------| Palm mute the E strings, not the power chords.

--------------------------------------------------------

Verse

e|-------------------------------------------------------------------|
B|-------------------------------------------------------------------|
G|-------------------------------------------------------------------|
D|-------------------------------------------------------------------|
A|-------------------------------------------------------------------|
E|-0-0-0-0-0-0-0-0-0-0-0-0-0-0-0-0-0-0-0-0-0-0-0-0-0-0-0-0-0-0-0-0-0-| (Play E string palm muted 32 times).

--------------------------------------------------------

Chorus

Play this three times.

e|--------------|
B|---------6p4--| Paul plays the two notes when Gibby yells
G|--------------| "Terminate! Terminate!" right after the
D|--------------| high pitched yell ("CYBORG LUST!"), where
A|--------------| you play the muted Es.
E|--x-x-x-------|

--------------------------------------------------------

Riff 2

This is right after the chorus, and serves as a transition into the next verse. Play super, super fast.

e|--12-15-14--|
B|------------|
G|------------| Play this
D|------------| eight times.
A|------------|
E|------------|


e|------------|
B|--12-15-13--|
G|------------| Play this
D|------------| six times.
A|------------|
E|------------|

And then, to end it off, play the three power chords, and back into the verse.


e|------------|
B|------------|
G|--9-9--3----|
D|--9-9--3----|
A|--7-7--1----|
E|------------|


--------------------------------------------------------
Solo is played different every time, but it's normally improvisation in the same key as the rest of this song.


************************************

| /   slide up
| \   slide down
| h   hammer-on
| p   pull-off
| ~   vibrato
| +   harmonic
| x   Mute note
| b   Bend
| pb  Pre-bend
| br  Bend release
| pbr Pre-bend release
| brb Bend release bend

************************************

            
            
Suggest correction
Creating personal tab
Creating personal tab
You can edit any tab online and save it as your Personal.

You can edit, replace or remove any tab part or add personal notes – all changes will be seen only by you.

Personal tabs can be accessed anytime from any device, even offline.
Learn more »
Give kudos to tab author, rate the tab!
1 2 3 4 5
comments
print report bad tab
guest
You may want to rate the tab now too:
select rating
Wanna post a correction for this tab? Suggest correction