Oops, an error
Loading. Please wait.

Down The Road bass

by C2C
73 views 6 this week
no commentswrite comment
1 2 3 4 5
2 more votes to show rating
add to favorites
×
Save as Personal and add changes to this tab that will be seen only by you. Learn more ›
×
You can save this tab as Personal to edit and correct it or add notes. All changes will be seen only by you. Learn more »
launch autoscroll
font size
0
reset
guitar tuner
edit
Autoscroll
slow
fast
+/-
esc
set tempo
stop
Artist: C2C
Song: Down The Road
Tuning - Standard
Time - 4/4 111bpm
tabbed by electricbunny

[Intro]
G|--------------------------------|--------------------------------|
D|--------------------------------|--------------------------------|
A|------------------------1-------|--------------------------------|
E|--------------------------------|3-------------------3---3-------|
 
G|--------------------------------|--------------------------------|
D|--------------------------------|--------------------------------|
A|--------------------------------|--------------------------------|
E|3-------------------3-----------|3-------------------3---3-------|
 
G|--------------------------------|--------------------------------|
D|--------------------------------|--------------------------------|
A|------------------------1-------|--------1-----------------------|
E|3-----------3-------------------|3-----------3---3---------------|
 
G|--------------------------------|--------------------------------|
D|--------------------------------|--------------------------------|
A|--------1---------------1-------|--------------------------------|
E|------------3-------3-------3---|--------------------------------|
 
G|--------------------------------|--------------------------------|
D|--------------------------------|--------------------------------|
A|--------------------------------|------------1-------------------|
E|--------------------------------|3-------------3-----------------|
 
G|--------------------------------|--------------------------------|
D|--------------------------------|--------------------------------|
A|--------------------------------|----1---------------3-4-3-1-1---|
E|--------------------------------|--------------------------------|
 
G|--------------------------------|--------------------------------|
D|--------------------------------|--------------------------------|
A|--------------------------------|------------1-------------------|
E|--------------------------------|3-------------3-----------------|
 
G|--------------------------------|--------------------------------|
D|--------------------------------|--------------------------------|
A|--------------------------------|----1---------------------------|
E|--------------------------------|------3-------------------------|
 
                                  [Verse 1]
G|--------------------------------|--0-----------------------------|
D|--------------------------------|--------------------------------|
A|--------------------------------|--------------------------------|
E|--------------------------3---3-|----3---------3-----------------|
 
G|--------------------0-----3-----|----5---------------------------|
D|--------------------------------|--------------------------------|
A|1-------------------------------|3---------------3---------------|
E|--3-3---------------------------|--------------------------------|
 
G|--------------------------------|--------------------------------|
D|--------------------------------|--------------------------------|
A|--------------------------------|1-------------------------------|
E|--------------------------3---3-|--4-3---------3-----------------|
 
G|--------------------------------|--------------------------------|
D|--------------------------------|--------------------------------|
A|1-------------------------1-----|1---3-----------3---------------|
E|----3---------------3-----------|--------------------------------|
 
                                  [Chorus]
G|--------------------------------|--------------------------------|
D|--------------------------------|--------------------------------|
A|--------------------------------|--------------------------------|
E|------------------------3-3---3-|3---3---------------------------|
 
G|--------------------------------|--------------------------------|
D|--------------------------------|--------------------------------|
A|----------------------------3---|--------------------------------|
E|1-------------------3-----3-----|0---------------3---------------|
 
G|--------------------------------|--------------------------------|
D|1---1---------------------------|--------------------------------|
A|--------------------------------|--------------------------------|
E|------------------------3-3---3-|3---3---------------------------|
 
G|--------------------------------|--------------------------------|
D|--------------------------------|--------------------------------|
A|----------------------------3---|--------------------------------|
E|1---1---------------3-----3-----|0---------------3---------------|
 
                                  [Verse 2]
G|--------------------------------|--------------------------------|
D|1---1---------------------------|--------------------------------|
A|--------------------------------|--------------------------------|
E|----------------1---1-----------|------------3---3-3-----------1-|
 
G|--------------------------------|--------------------------------|
D|--------------------------------|--------------------------------|
A|--------------------------------|3-----3-----3-----------3-------|
E|1-1---------1-1-----------------|--1-1-------------3-------------|
 
G|----------------------------0-3-|0-0---0-------------------------|
D|1-------------------------------|--------------------------------|
A|--------------------------------|--------------------------------|
E|--------------------------------|------------3-3---3-----------3-|
 
G|--------------------0-----0-----|------------------------0-------|
D|--------------------------------|--------------------------------|
A|--------------------------------|------------1-------------------|
E|1-1---------1-1---3-----3-----3-|3-3-3-------------3---3-------3-|
 
                                  [Break]
G|------------------------------0-|--------------------------------|
D|1---1---------------------------|--------------------------------|
A|--------------------------------|--------------------------------|
E|------------0---2-2-2-3-3-3-----|--------------------------------|
 
G|--------------------------------|--------------------------------|
D|--------------------------------|--------------------------------|
A|--------------------------------|--------------------------------| (x2)
E|--------------------------------|--------------------------------|

G|--------------------------------|--------------------------------|
D|--------------------------------|--------------------------------|
A|--------------------------------|--------------------------------|
E|--------------------------------|------------------------3-3---3-|
 
G|--------------------------------|--------------------------------|
D|1-------------------------------|1-------------------------------|
A|--------------------------------|--------------------------------|
E|3-------------------------------|--------------------------------|
 
G|--------------------------------|--------------------------------|
D|1-------------------------------|--------------------------------|
A|--------------------------------|--------------------------------|
E|--------------------------------|--------------------------------|
 
                                  [Chorus]
G|--------------------------------|--------0-----------0-----------|
D|--------------------------------|--------------------------------|
A|--------------------------------|--------------------------------|
E|------------------------3-3---3-|3---3-------3-3---------3-------|
 
G|--------------------------------|--------------------------------|
D|--------3-----------------------|2-------------------------------|
A|--------------------------------|--------------------------------|
E|1---1---------------------0---0-|----0---0---0---0-------3-------|
 
G|--------------------------------|--------0-----------0-----------|
D|1---1-----1-----1---------------|--------------------------------|
A|--------------------------------|--------------------------------|
E|------------------------3-3---3-|3---3-------3-----------3-------|
 
G|--------------------------------|--------------------------------|
D|--------3-----3-----------------|----------------2---------------|
A|----------------------3-----3---|--------------------------------|
E|1---1-------------1-3-----3-----|0-------0---0-------------------|
 
G|--------------------------------|--------0-----------0-----------|
D|1---1-----1-----3-4-3-4-3-1-----|--------------------------------|
A|--------------------------------|--------------------------------|
E|------------------------------3-|3---3-------3-3---------3-------|
 
G|--------------------------------|--------------------------------|
D|--------3-----------------------|2-------------------------------|
A|--------------------------------|--------------------------------|
E|1---1---------------------0---0-|----0---0---0---0-------3-------|
 
G|--------------------------------|--------0-----------0-----------|
D|1---1-----1-----1---------------|--------------------------------|
A|--------------------------------|--------------------------------|
E|------------------------3-3---3-|3---3-------3-----------3-------|
 
G|--------------------------------|--------------------------------|
D|--------3-----3-----------------|--------------------------------|
A|----------------------3-----3---|--------------------------------|
E|1---1-------------1-3-----3-----|0-------0---0-0-------------0---|
 
G|--------------------------------|
D|1-------------------------------|
A|--------------------------------|
E|--------------------------------|

            
            
Suggest correction
Creating personal tab
Creating personal tab
You can edit any tab online and save it as your Personal.

You can edit, replace or remove any tab part or add personal notes – all changes will be seen only by you.

Personal tabs can be accessed anytime from any device, even offline.
Learn more »
Give kudos to tab author, rate the tab!
1 2 3 4 5
comments
print report bad tab
guest
You may want to rate the tab now too:
select rating
Wanna post a correction for this tab? Suggest correction