Oops, an error
Loading. Please wait.

Vertientre tab

29 views 1 this week
no commentswrite comment
1 2 3 4 5
3 more votes to show rating
add to favorites
×
Save as Personal and add changes to this tab that will be seen only by you. Learn more ›
×
You can save this tab as Personal to edit and correct it or add notes. All changes will be seen only by you. Learn more »
launch autoscroll
font size
0
reset
how to read this tab
guitar tuner
edit
Autoscroll
slow
fast
+/-
esc
set tempo
stop
QUE ROLA CHINGAO, PARA LA BANDA ARGENTINA, 
Y AGUANTE QABEZONES PERO QUE YA VENGAN A MÉXICO.

BUENO AQUI ESTÁ Y ES 100% CORRECTA

  vertientre


 Y CAMINO EN LABERINTOS TAN DESIERTOS, DÉJAME LLEGAR  
d------------------------------------------------------I
A------------------------------------------------------I
F-7-7-7--------------7-----------------3---------------I
C-7-7-7--------------5-----------------3----------5----I
G-5-5-5--------------5-----------------1----------5----I
C-------------------------------------------------5----I


 Y LA VUELTA ES INMENSA, ES ETERNA, DEJATE LLEVAR  
d----------------------------------------1-------------I
A------------------------------------------------------I
F-7-----------7---------------7-------3----3-------7---I
C-7------------7--------------5-------3--------5--7--7-I
G-5---------------------------5-------1--------5-5-----I
C----------------------------------------------5-------I


x2 (0:2O) Y (1:23) Y x4 (2:45)
F---------------------------------------------------10-10-10-10---I
C-3-5-5-5--3-5-5-5--0--0-0--3--3-5-5-5--3-5-5-5--0--10-10-10-10---I
G-3-5-5-5--3-5-5-5--0--0-0--3--3-5-5-5--3-5-5-5--0--8--8--8--8----I
C-3-5-5-5--3-5-5-5--0--0-0--1--3-5-5-5--3-5-5-5--0----------------I


 SOL ETÉREO QUE DESGARRA MIS MENTIRAS, DESVANECE LA RAZÓN
d------------------------------------------1---------------I
A--------------------------------------------1-------------I
F-7-----------------7--------------------------3------7----I
C-7-----------------5--------------------3-----------7-7---I
G-5-----------------5------------------1------------5---5--I
C-------------------------------------------------5------5-I


 AFERRARME A TU ENTRAÑA AFILADA, NO FUE UNA BUENA DECISIÓN
d---------------------------------------1-------------------I
A----5-----------------------------------1------------------I
F----7-------------7----------------------3----------7------I
C---7--------------5-----------------3-------------7--------I
G--5---------------5-------------1--------------5-------5---I
C-0-------------------------------------------5-----------5-I


AQUI ES CON WHA Y OJO CON LAS NOTAS
  ALIMENTA MIS HERIDAS...........
F-7-7-7-7-7--7-7-7-7-7--7-7-7-7-7--7-7-7-7-7-------------I
C-7-7-7-7-7--7-7-7-7-7--7-7-7-7-7--7-7-7-7-7-------------I
G-5-5-5-5-5--5-5-5-5-5--5-5-5-5-5--5-5-5-5-5-------------I
C--------------------------------------------------------I
                                                         I
                                   SE EMPIEZA A DEVELAR  I
F-10-10-10-10-10--10-10-10-10-10-------------------------I
C-10-10-10-10-10--10-10-10-10-10--5-5-5-5-5--5-5-5-5-5---I
G--8--8--8--8--8---8--8--8--8--8--5-5-5-5-5--5-5-5-5-5---I
C---------------------------------5-5-5-5-5--5-5-5-5-5---I
                                                         \
                                                          \
                                                          /
  AUNQUE NAZCA Y AMANEZCA........                        /
F-7-7-7-7-7--7-7-7-7-7--7-7-7-7-7--7-7-7-7-7-------------I
C-7-7-7-7-7--7-7-7-7-7--5-5-5-5-5--5-5-5-5-5-------------I
G-5-5-5-5-5--5-5-5-5-5--5-5-5-5-5--5-5-5-5-5-------------I
C--------------------------------------------------------I
                                                         I
                                  VERTIENTRE             I
F-10-10-10-10-10--10-10-10-10-10-------------------------I
C-10-10-10-10-10--10-10-10-10-10--5-5-5-5-5--5-5-5-5-5---I
G--8--8--8--8--8---8--8--8--8--8--5-5-5-5-5--5-5-5-5-5---I
C---------------------------------5-5-5-5-5--5-5-5-5-5---I


x2 (1:06 Y 2:09)      NADA  ES   COMO   ES          MI  VERTIENTRE  AGONIZÓ
d----------------------3-3-3-3-3-3-3-3------------------------------------------I
A----------------------6-6-6-6-6-6-6-6------------------------------------------I
F-7-7-7-7-7-7-7--------5-5-5-5-5-5-5-5------------------------------------------I
C-7-7-7-7-7-7-7-0-0--3-3-3-3-3-3-3-0-0--8-10-10-10-10-10-10-0-0---5-7-7-7-7-7-7-I
G-5-5-5-5-5-5-5-0-0--3-3-3-3-3-3-3-0-0--8--8--8--8--8--8--8--0-0--5-5-5-5-5-5-5-I
C-0-0-0-0-0-0-0-0-0--3-3-3-3-3-3-3-0-0--8--8--8--8--8--8--8--0-0--5-5-5-5-5-5-5-I


  MI MEDUSA INSOBORNABLE,     CANÍBAL DE MI VOLUNTAD
d----------------------------------1-----------------I
A------------------------------------1---------------I
F-7-----------------7-------------------3-------7----I
C-7-----------------5------------3-------------7-7---I
G-5-----------------5---------1---------------5---5--I
C-------------------------------------------5------5-I


  Y SEDUCE HASTA LA PARTE MÁS REMOTA, DONDE HE DE MADURAR
d-------------------------------------------1-------------I
A----5-----------------------------------------1----------I
F----7---------------7--------------------------3-----7---I
C---7----------------5-------------------3-----------7----I
G--5-----------------5-----------------1------------5--5--I
C-0------------------------------------------------5----5-I


3. vertiente

Y camino en laberintos tan desiertos 
Déjame llegar 
Y la vuelta es inmensa, es eterna 
Déjame llevar

Sol etéreo que desgarra mis mentiras
Desvanece la razón
Aferrarme a tu entraña afilada
No fue una buena decisión

Alimenta mis heridas, se acobarda con mi vida
Se empieza a develar 
Aunque nazca y amanezca, aunque sienta y enloquezca 
Vertiente

MI medusa insobornable
Caníbal de mi voluntad 
Y seduce hasta la parte más remota
Donde he de madurar
Y EEEEEEEEESO ES TODO, LUEGO LES MANDO MAS, TENGO LA MITAD DEL ALAS Y LA MITAD
DEL ECLIPSE, Y DOS DEL HIJOS DE UNA NUEVA TIERRA

            
            
Suggest correction
Creating personal tab
Creating personal tab
You can edit any tab online and save it as your Personal.

You can edit, replace or remove any tab part or add personal notes – all changes will be seen only by you.

Personal tabs can be accessed anytime from any device, even offline.
Learn more »
Give kudos to tab author, rate the tab!
1 2 3 4 5
comments
print report bad tab
guest
Wanna post a correction for this tab? Suggest correction