Oops, an error
Loading. Please wait.

Vuelve La Alegria tab

43 views 1 this week
no commentswrite comment
1 2 3 4 5
3 more votes to show rating
add to favorites
×
Save as Personal and add changes to this tab that will be seen only by you. Learn more ›
×
You can save this tab as Personal to edit and correct it or add notes. All changes will be seen only by you. Learn more »
launch autoscroll
font size
0
reset
how to read this tab
guitar tuner
edit
Autoscroll
slow
fast
+/-
esc
set tempo
stop
Q + amigos d3 l4 cu3rd4 soy MARCK-ROCK y les traigo este
 exitaso de C4c3r14 d3 l4g4rt0s tan solicitado espero que
les guste
pues es una cancion super cool?? DISFRUTALA

POR CIERTO ESTA  PERFECTA¡¡¡¡¡¡¡¡¡

C4c3r14 d3 l4g4rt0s

Intro

E. --------------------------------------------------------
B.---------------------------------------------------------
G.---------------------------------------------------------
D.--5-5--5-5----9------------------------------------------
A.--------------------10-----------------------------------
E.---------------------------------------------------------


E.---------------------------------------------------------
B.---------------------------------------------------------
G.---------------------------------------------------------
D.---------------------------------------------------------
A.-- 10-10--10-10-----7--5---------------------------------
E.---------------------------------------------------------


E.---------------------------------------------------------
B.---------------------------------------------------------
G.---------------------------------------------------------
D.-----------------7---------------------------------------
A.----5-5--5-5----------5----------------------------------
E.---------------------------------------------------------


E.--------------------------------------|
B.--------------------------------------|
G.--------------------------------------|
D.--------------------------------------|        x 2
A.----------------------5------5/7--5---|
E.----5-5--5-5---7----------------------|


( 2da parte del intro)


E.---------------------------------------------------------
B.---------------------------------------------------------
G.---------------------------------------------------------
D.--------------4------------4-----------------------------
A.--5-5--5-5-------5-5--5-5-----5-5--5-5-------------------
E.---------------------------------------7--5--------5/7-5


E.-------------------------------------------------------|
B.-------------------------------------------------------|
G.-------------------------------------------------------|
D.-------------------------------------------------------|x2
A.----------------4--------------4----------2---2/5-2/5-2|
E.----5-5--5-5-------5-5--5-5------5-5--5-5--------------|


(En los versos utiliza D - A)

VERSOS:

 D
A pesar que odio tanto

                  A
La musica de la --------

Yo la canto por la plata

                     D
Yo la canto por la fama


D
Si tu no te vas ya

                    A
Eso a mi no me interasa

                                         D
No soy billet de 100 para gustarle a cualquiera


( aquí va la segunda parte del intro )


A pesar de que hace meses
Que yo ando sin trabajo
A pesar de que es la quinta
vez que me dejas plantado

Pero esta noche
todo va a cambiar
Me voy a emborrachar
Hasta reventar           (igual que el primer verso)


A.----5/1-----------------


Se que mi amigo el  perro
Escucha esta canción
El se pone a bailar
Con ritmo y emoción

Todas las chicas del barrio
Cuando lo ven pasar
Ellas siempre se enamoran
de su forma de bailar

CORO x2

D5                               A5
Y vuelve y vuelve y vuelve la alegría

                                            D5
Que a veces solo a veces te va de maravilla


Solo:


E.---9--8---------7-8-7------------------------------------
B.---9--8-----9-----------9--------------------------------
G.---------------------------------------------------------
D.---------------------------------------------------------
A.---------------------------------------------------------
E.---------------------------------------------------------


Se que mi amigo. . . . .

Pito

Coro

Solo


Les pido disculpas por que me falto una palabra en el
 primer verso si sabes házmelo saber.. . . .

De paso mando un saludo aquí en Riobamba
para mi hermano Davicho y que sea un excelente
violinista, a y quiero disculparme a la persona que
supo tolerarme con mi musica pero igual me supo apoyar. . . . .


Comentarios, ayuda, o panas a mi correo:

Marco15rio@


RIOBAMBA - ECUADOR


Marcko Antonio Ramos.

            
            
Suggest correction
Creating personal tab
Creating personal tab
You can edit any tab online and save it as your Personal.

You can edit, replace or remove any tab part or add personal notes – all changes will be seen only by you.

Personal tabs can be accessed anytime from any device, even offline.
Learn more »
Give kudos to tab author, rate the tab!
1 2 3 4 5
comments
print report bad tab
guest
Wanna post a correction for this tab? Suggest correction