Oops, an error
Loading. Please wait.

Amor Salvaje tab

179 views 1 this week
no commentswrite comment
1 2 3 4 5
3 more votes to show rating
add to favorites
×
Save as Personal and add changes to this tab that will be seen only by you. Learn more ›
×
You can save this tab as Personal to edit and correct it or add notes. All changes will be seen only by you. Learn more »
launch autoscroll
font size
0
reset
how to read this tab
guitar tuner
edit
Autoscroll
slow
fast
+/-
esc
set tempo
stop
Ritmo: chacarera simple

punteo:

e||--------------------------------------0-2~3--------3--2-5-3-2-0--7--|
B||----------------------0-1-4-5-4-3---4------------5--------------8---|
G||------0-2-4-2-1-2---2--------------------------4--------------------|
D||--2-4----------------------------------------0----------------------|
A||--------------------------------------------------------------------|
E||--------------------------------------------------------------------|


 -------2-3-2-3-4-5-----------5---5-7-8-11----------11--|
 -5-4-5-------------5-------5-------------10------10----|
 ---------------------5---5-----------------11--11------|
 -----------------------7---------------------10--------|
 -------------------------------------------------------|
 -------------------------------------------------------|


  --11-12-14--15-14-12-11--17-15-14-12----------||
  ------------------------------------12--------||
  --------------------------------------12------||
  ----------------------------------------14----||
  ----------------------------------------------||
  ----------------------------------------------||


  LAm
Te llevé sin preguntarte ni tu nombre
        MIm
con mi brazo encadenado en tu cintura
    SI7
asalté tu intimidad y tu ternura
       DO            SI7             MIm
para amar sin más razones que el amor


Nos besamos sin decir ni una palabra
fuimos cómplices callados del verano
y mis manos temblorosas se quedaron
seducidas por el fuego de tu piel

Estribiyo:
        LAm
Amor salvaje
                                   MIm
juntos cruzamos los umbrales del pecado
                                    SI7
con el puñal de la pasión nos desgarramos
                            MIm/MI7
sin derramar ni una gotita de dolor

        LAm
Amor salvajeeeee...
                                   MIm
como una selva tropical nos incendiamos
                                   SI7
y en un instante sin saber que no dejamos
                                   MIm
ni una ramita de ilusión para después


LAm DO MI7 LAm :x4, y el punteo

segundita:

Anhelante como un puma entre las sombras
desgajé tu cuerpo entero con mis besos
y atrapado por las lunas de tu pecho
por el cálido gemido de tu voz

Y montados en el potro del deseo
sin frontera por la noche galopamos
y nos vio la madrugada con ojeras
desvelados y diciéndonos adiós

Estribiyo y fin

            
            
Suggest correction
Creating personal tab
Creating personal tab
You can edit any tab online and save it as your Personal.

You can edit, replace or remove any tab part or add personal notes – all changes will be seen only by you.

Personal tabs can be accessed anytime from any device, even offline.
Learn more »
Give kudos to tab author, rate the tab!
1 2 3 4 5
comments
print report bad tab
guest
Wanna post a correction for this tab? Suggest correction