Oops, an error
Loading. Please wait.

Cansion Infantil tab

41 views 1 this week
no commentswrite comment
1 2 3 4 5
3 more votes to show rating
add to favorites
×
Save as Personal and add changes to this tab that will be seen only by you. Learn more ›
×
You can save this tab as Personal to edit and correct it or add notes. All changes will be seen only by you. Learn more »
launch autoscroll
font size
0
reset
how to read this tab
guitar tuner
edit
Autoscroll
slow
fast
+/-
esc
set tempo
stop
Intro(aca hay 2 formas usan la que mas les guste)

E|-------------------|     E|----12--10-9-7-|
B|----12--10-9-7-----|     B|-9h------------|
G|-9h----------------|  o  G|---------------|
D|-------------------|     D|---------------|
A|-------------------|     A|---------------|
e|-------------------|     e|---------------|

Riff:
E|--------------------------------|
B|--------------------------------|
G|--------------------------------|
D|----------5-5-5-5-0-------------|
A|5-5-5-5-0-3-3-3-3-0-5-5-5-5-7-7-|
e|3-3-3-3-0-----------3-3-3-3-5-5-|

Riff2:

E|------------------------------|
B|------------------------------|
G|------------------------------|
D|----------------7-7-7-7-7-7---|
A|-5-5-5-5-5-5----5-5-5-5-5-5---|
e|-3-3-3-3-3-3--0-------------0-|


Estribillo:
E|-------------------------|
B|-------------------------|
G|-------------------------|
D|-------------6-6-6-6-6-6-|
A|-6-6-6-6-6-6-4-4-4-4-4-4-|
e|-4-4-4-4-4-4-------------|

solo:
E|-----------------------------------------------------------------------|
B|-9-9-8-8-7-7-6-6-7-7-6-6-9-9-8-8^^--9-9-8-8-7-7-6-6-7-7-6-6-9-9-8-8^^--|
G|-----------------------------------------------------------------------|
D|-----------------------------------------------------------------------|
A|-----------------------------------------------------------------------|
e|-----------------------------------------------------------------------|

(Intro)

(Riff)
no puedo entender,el planeta extraño.
cuanto mas creces,mas nos deformamos.

(Riff2 x2)
los grandes me van a abrazar,
con envidia y la ambicion.
querran que siempre sea el
mejor,el mejor de lo peor...

(Estribillo)
lara,lara,lara

(Riff)
quiero ser igual
libre como el viento,
no quiero pedir,solo 3 deseos
(Riff2)
los grandes no saben soñar,
y quieren que no sueñe yo,
podria molestar mucho mas,
lo que quiera el corazon.

(Estribillo)
lara,lara

(intro x4)
(Riff)
que miedo me da,
sangre y tanques de verdad
eso no es jugar,
siempre lloran todos

(Riff2)
los grandes no saben ni hablar,
y siempre tienen la razon,
podrian aprender a pensar y
evitar tanto dolor

(Estribilo)
lara,lara,lara

(riff)
no quiero estar mal

(solo x2)

cualquier duda the_kids_cry@ (si hay algo mal arreglenlo)

            
            
Suggest correction
Creating personal tab
Creating personal tab
You can edit any tab online and save it as your Personal.

You can edit, replace or remove any tab part or add personal notes – all changes will be seen only by you.

Personal tabs can be accessed anytime from any device, even offline.
Learn more »
Give kudos to tab author, rate the tab!
1 2 3 4 5
comments
print report bad tab
guest
Wanna post a correction for this tab? Suggest correction