Oops, an error
Loading. Please wait.

Cerrar La Historia tab

47 views 1 this week
no commentswrite comment
1 2 3 4 5
3 more votes to show rating
add to favorites
×
Save as Personal and add changes to this tab that will be seen only by you. Learn more ›
×
You can save this tab as Personal to edit and correct it or add notes. All changes will be seen only by you. Learn more »
launch autoscroll
font size
0
reset
how to read this tab
guitar tuner
edit
Autoscroll
slow
fast
+/-
esc
set tempo
stop
Todos los acordes en 5ta.
Los E y los F haganlo agudos


e:---3---5-3-5-3---5-3-5-3---5-3-5-3---5-3---------
b:-------------------------------------------------
g:-------------------------------------------------
d:-------------------------------------------------

e:-------------------------------------------------
b:---1--3/4--4--3-----3/5--------------------------
g:-----------------0-------------------------------
d:-------------------------------------------------

e:------------4------------------------------------
b:---1--3/4-------4--3--1--------------------------
g:-------------------------------------------------
d:-------------------------------------------------


C
Ahora soy, ahora no
   A#
vivi una vida que no es mia
C
ahora que hago, a donde voy
   A#
se dio lo que ya presentia
   G#                      C   (C A#)
como se puede estar en armonia
   G#                            C
viviendo esta mentira hasta el final


C
ahora soy, ahora no
     A#
la busqueda no se termina
    C
aun quedan cientos como yo
      A#
y hay otros que viven sus dias
  G#                       C     (C A#)
para poner la luz en las retinas
    G#                            C
hay gente que no encuentra identidad


e:--------------10--8--------------------8--6---------
b:---7/8-8-8-8--------------5/6-6-6-6-----------------
g:----------------------------------------------------
d:----------------------------------------------------

e:----------------------------------------------------
b:---1--3/4--4--3-----3/5-----------------------------
g:-----------------0----------------------------------
d:----------------------------------------------------

e:------------4---------------------------------------
b:---1--3/4-------4--3--1---1--0----------------------
g:--------------------------------3--3--2--1-1-1-1-1--
d:----------------------------------------------------


C        E        F      G              C
  si seguimos buscando vamos a encontrar
           E          F          G       C
cientos de almas perdidas en la oscuridad
       E       F       G      C
si no los olvidamos apareceran
        E            F   G            C C C
yo espero que algun dia caminen en paz


e:--------------------------------------------------
b:--------------------------------------------------
g:--------------------------------------------------
d:------------5--7--5-----3--2--3----3-3-3-2-0------
a:---3--5--3-----------------------------------3----
e:--------------------------------------------------

e:--------------------------------------------------
b:--------------------------------------------------
g:--------------------------------------------------
d:---5--7--5-----3--2--3----3-3-3-2-0---------------
a:------------------------------------3-------------
e:--------------------------------------------------

e:--------------------------------------------------
b:--------------------------------------------------
g:---------------5--7--5---9-9-9-7-7-5----------------
d:---5--7--5----------------------------------------
a:--------------------------------------------------
e:--------------------------------------------------


C        E        F      G              C
  si seguimos buscando vamos a encontrar
           E          F          G       C
cientos de almas perdidas en la oscuridad
       E       F        G             C
refrezca tu memoria no olvides que hay
      E             F          G              C C C
un agujero en la historia que habra que cerrar


 / = Slide
() = Opcional


**************************************************************


Bueno este es mi 1er tema, espero ke les guste
La cancion sta 10 puntos.

Aguante Cadena, Shaila y Bulldog !!!

Aguante el Punk Rock !!!

            
            
Suggest correction
Creating personal tab
Creating personal tab
You can edit any tab online and save it as your Personal.

You can edit, replace or remove any tab part or add personal notes – all changes will be seen only by you.

Personal tabs can be accessed anytime from any device, even offline.
Learn more »
Give kudos to tab author, rate the tab!
1 2 3 4 5
comments
print report bad tab
guest
Wanna post a correction for this tab? Suggest correction