Oops, an error
Loading. Please wait.

El Avestruz tab

22 views 1 this week
no commentswrite comment
1 2 3 4 5
3 more votes to show rating
add to favorites
×
Save as Personal and add changes to this tab that will be seen only by you. Learn more ›
×
You can save this tab as Personal to edit and correct it or add notes. All changes will be seen only by you. Learn more »
launch autoscroll
font size
0
reset
how to read this tab
guitar tuner
edit
Autoscroll
slow
fast
+/-
esc
set tempo
stop
E-------------------------
B-------------------------
G-------------------------
D--0-0-5-0-5-5-5-4-4-4-2-2
A-------------------------
E-------------------------


E-----------------------------------
B-----------------------------------
G-----------------------------------
D--0-0-5-0-5-5-5-4-4-4-2-2-0-0-5-0-5
A-----------------------------------
E-----------------------------------

G              B           C                      G
cuántas horas, cuántas más me vas hablar sin sentimientos
Em           B              C                 D
las palabras que no abrazan hoy me hacen dudar
G         B                  C               G
naturalizando el miedo se te seca el cuerpo adentro
Em     B        D           D-C-B-C-B-A
psicomanias inseguridad...

G             D           Em            B
que estas esperando ahora que estas esperando
Em       B            D      D-C-B-C-B-A
otro día esta por empezar
G             D             Em            B
que estas esperando, decime que estas esperando
Em       B             D
otro día esta por terminar....

G             B             C               G
cuántos años, cuántos más necesitas para creerlo
Em           B        C           D
nos pudrimos cada día un poquito más
G         B                  C                    G
el cariño no hay que hacerlo hay que ser un poco más sinceros
Em          B              D           D-C-B-C-B-A
el silencio dice que no te animas...

G             D           Em            B
que estas esperando ahora que estas esperando
Em       B            D      D-C-B-C-B-A
otro día esta por empezar
G             D             Em            B
que estas esperando, decime que estas esperando
Em       B             D
otro día esta por terminar....

E--------------------------------
B--------------------------------
G--------------------------------
D--5-5-5-5-4-4-4-4-2-2-2-0-0-0-0-      X2
A--------------------------------
E--------------------------------

E--------------------------------
B--------------------------------
G--------------------------------
D--Oh2--2~--2--------------------
A-------------0-2-2-0-2----------
E--------------------------------

E--------------------------------
B--------------------------------
G--------------------------------
D--5-5-5-5-4-4-4-4-2-2-2-0-0-0-0-      X2
A--------------------------------
E--------------------------------

E--------------------------------
B--------------------------------
G--------------------------------
D--------2--2-0-2--2/4---------
A--5-3-5-------------------------
E--------------------------------

G              D           Em             B
que estas esperando decime que estas esperando
Em         B          D           D-C-B-C-B-A
otro día esta por empezar....
G               D          Em            B
que estas esperando mírame que estas esperando
Em         B           D             G
otro día esta por terminar....


BUENO ACA LES DEJO UN TEMITA DE CP DEL ULTIMO DISCO ESPERO Q LES SIRVA :)

UN SALUDO PARA LOS PIBES DE TUFFO DE TRELEW Y PARA MAURITO <3

            
            
Suggest correction
Creating personal tab
Creating personal tab
You can edit any tab online and save it as your Personal.

You can edit, replace or remove any tab part or add personal notes – all changes will be seen only by you.

Personal tabs can be accessed anytime from any device, even offline.
Learn more »
Give kudos to tab author, rate the tab!
1 2 3 4 5
comments
print report bad tab
guest
Wanna post a correction for this tab? Suggest correction