Oops, an error
Loading. Please wait.

Los Chicos Lloran tab

26 views 1 this week
no commentswrite comment
1 2 3 4 5
3 more votes to show rating
add to favorites
×
Save as Personal and add changes to this tab that will be seen only by you. Learn more ›
×
You can save this tab as Personal to edit and correct it or add notes. All changes will be seen only by you. Learn more »
launch autoscroll
font size
0
reset
how to read this tab
guitar tuner
edit
Autoscroll
slow
fast
+/-
esc
set tempo
stop
INTRO
NOTA:En la introduccion la guitarra hace unos
armonicos con A y B con el volumen bajo y luego
se lo sube y se lo baja rapido para darle ese
efecto... Nada raro !

E---------------------------------------
B---------12*---------------------------
G---------------------------------------
D----7*---------------------------------
A---------------------------------------
E---------------------------------------
NOTA: Puede ser en otros A y B ... eligan los
que mas le guste como suenen.

ESTRIBILLO
  No me gusta este lugar
  Esta plagandose del mal
  Te infecta a vos
  me infecto yo y...
E---------------------------------------
B--------------------------------------
G---------------------------------------
D--7777777-9999999----------------------
A--7777777-9999999----------------------
E--5555555-7777777----------------------


    Voy contagiando al resto
E---------------------------------------
B---------------------------------------
G---66666-77777-------------------------
D---66666-77777-------------------------
A---44444-55555-------------------------
E---------------------------------------
  No me gusta este lugar
  Esta plagandose del mal
  La indiferencia es nuestra
  destru...
E---------------------------------------
B--------------------------------------
G---------------------------------------
D--7777777-9999999----------------------
A--7777777-9999999----------------------
E--5555555-7777777----------------------
   ccion Si nadie se hace cargo
E---------------------------------------
B---------------------------------------
G---66666--------------7----------------
D---66666--------------7----------------
A---44444--------------5----------------
E---------------------------------------
   Yo me hago cargo
E---------------------------------------
B---------------------------------------
G----------7----------------------------
D----------7----------------------------
A----------5----------------------------
E---------------------------------------
    Hacete cargo
E---------------------------------------
B---------------------------------------
G----------7----------------------------
D----------7----------------------------
A----------5----------------------------
E---------------------------------------

PUENTE:

E--------------------------------------
B--------------------------------------
G--------------------------------------
D-4-67-67-67-9...----------------------
A--------------------------------------
E--------------------------------------

E--------------------------------------
B--------------------------------------
G--------------------------------------
D-4-67-67-67-9...----------------------
A--------------------------------------
E--------------------------------------

E--------------------------------------
B--------------------------------------
G--------------------------------------
D-4-67-67-67-9...----------------------
A--------------------------------------
E--------------------------------------

E--------------------------------------
B--------------------------------------
G--------------------------------------
D-11-11-11-11-11-12-11-9-11------------
A--------------------------------------
E--------------------------------------

E--------------------------------------
B--------------------------------------
G--------------------------------------
D-4-67-67-67-9...----------------------
A--------------------------------------
E--------------------------------------

E--------------------------------------
B--------------------------------------
G--------------------------------------
D-4-67-67-67-9...----------------------
A--------------------------------------
E--------------------------------------

E--------------------------------------
B--------------------------------------
G--------------------------------------
D-4-67-67-67-9...----------------------
A--------------------------------------
E--------------------------------------

E--------------------------------------
B--------------------------------------
G--------------------------------------
D-11-11-11-11-11-12-11-9-7..-----------
A--------------------------------------
E--------------------------------------

ESTRIBILLO

PUENTE 2:
E--------------------------------------
B--------------------------------------
G-6---6---6---6---6---6---6------------
D---7---7---7---9---9---9---9----------
A--------------------------------------
E--------------------------------------
  . . . . . . . . . . . . . .
ESTRIBILLO: ( Los chicos van a llorar )

E--------------------------------------
B--------------------------------------
G-------------777-66-------------------
D--7777777-9--777-66-9-----------------
A--7777777-9--555-44-9-----------------
E--5555555-7---------7-----------------

FINAL:
E---------------------------------------
B---------------------------------------
G---------------------------------------
D--7777777------------------------------
A--7777777------------------------------
E--5555555------------------------------
   .......

            
            
Suggest correction
Creating personal tab
Creating personal tab
You can edit any tab online and save it as your Personal.

You can edit, replace or remove any tab part or add personal notes – all changes will be seen only by you.

Personal tabs can be accessed anytime from any device, even offline.
Learn more »
Give kudos to tab author, rate the tab!
1 2 3 4 5
comments
print report bad tab
guest
Wanna post a correction for this tab? Suggest correction