Oops, an error
Loading. Please wait.

Relaciones Peligrosas tab

13 views 1 this week
no commentswrite comment
1 2 3 4 5
3 more votes to show rating
add to favorites
×
Save as Personal and add changes to this tab that will be seen only by you. Learn more ›
×
You can save this tab as Personal to edit and correct it or add notes. All changes will be seen only by you. Learn more »
launch autoscroll
font size
0
reset
how to read this tab
guitar tuner
edit
Autoscroll
slow
fast
+/-
esc
set tempo
stop
Intro:

  A5 C5
e|-------------------------------------------------------|
b|-------------------------------------------------------|
g|-2---2---2---2---2---2---2-2---2---2---2---2---2---2---|
d|-2---2---2---2---2---2---2-2---2---2---2---2---2---2---|
a|-0-3-0-3-0---0-3-0-3-0---0-0---0-3-0-3-0---0-3-0-3-0---|
E|-------------------------------------------------------|


e|-----------------------------------------------------1-3--5---|
b|-5-5-5-3-5-6--6-6-5-5-3-3-3---3-5----------5-5-6-8-6--------5-|
g|----------------------------5------5-2-2~~--------------------|
d|--------------------------------------------------------------|
a|--------------------------------------------------------------|
E|--------------------------------------------------------------|


 Punteo 1
e|--------------------------------------------------------------------|
b|-------------5-5-5-5-3---3----------------------------5-5-5-8-5-8s10|
g|-2-2-5-2-5s7-----------5---5-2-0-2-5-2-0--2-2-5-2-5s7---------------|
d|--------------------------------------------------------------------|
a|--------------------------------------------------------------------|
E|--------------------------------------------------------------------|


 Punteo 2
e|---------------------------------------------------------------------
b|---------------------------------------------------------------------
g|-2-2-2-2(*)-5-5-4-2-2-5-5-4-2-2--2-2-2-----2-2-2---------------------
d|---------------------------------------5-5-------5-5-3-3-3-2-2-0-2---
a|---------------------------------------------------------------------
E|---------------------------------------------------------------------

*Las veces necesarias

---------------------------------------------|
---------------------------------------------|
--------------------------------5-4-2--------|
-3-2-0-2-------0-2-3-2--0-2-3-5--------------|
---------5-3-0------------------------3-2-0--|
---------------------------------------------|


 Riff 1                  Riff 2

    A5  G5                A5 C5                      SOL*
e|----------------------|---------------------------|-3--|
b|----------------------|---------------------------|-3--|
g|----------------------|--2---2---2--2--2---2---2--|-0--|
d|--7-7-5-7-5-7-7--5-7--|--2---2---2--2--2---2---2--|----|
a|--7-7-5-7-5-7-7--5-7--|--0-3-0-3-0--0--0-3-0-3-0--|----|
E|--5-5-3-5-3-5-5--3-5--|---------------------------|----|


A5                         D5
Hoy me siento un poco mal, sigue la programación

G*                             A5    Riff 1
La calle esta más peligrosa que antes...

A5
Vas a elaborar tus propias ideas,

D5
Pero con las opiniones ajenas,

G*                                A5  Riff 1
Esta dulce relación puede narcotizarte


      D5           G5       A5
¿Hasta cuando va a durar este amor a la televisión?

   D5                         G5                A5 Riff 1
Pensas que estas mirando pero creo que te ven a vos.

      D5           G5       A5
¿Hasta cuando va a durar este amor a la televisión?

   D5                         G5                A5
Pensas que estas mirando pero creo que te ven a vos.


Punteo 1


A5                 D5
Vamonos a caminar por la virtualización,

G*                              A5    Riff 1
La calle esta más mentirosa que antes...

A5
Cruzaras los mares y los desiertos

D5
Hoy conocerás a un amigo nuevo

G*                                     A5    Riff 1
Dejara esta relación huellas por todas partes


       D5             G5       A5
¿Hasta cuándo vas a estar embobado frente al monitor?
   D5                        G5                 A5   Riff 1
Pensas que estas mirando pero creo que te ven a vos.

       D5             G5       A5
¿Hasta cuándo vas a estar embobado frente al monitor?
   D5                        G5                 A5
Pensas que estas mirando pero creo que te ven a vos.


Punteo 2


       D5             G5      A5
¿Hasta cuándo va a durar esta moda de la depresión?

    D5                        G5               A5  Riff 2
Cualquiera en estos días se castiga con Clonazepán,

         D5         G5      A5
¿Hasta cuándo va a durar esta moda con la depresión?

    D5                        G5             A5    Riff 2
Cualquiera en estos días se castiga con Clonazepán


D5 G5 A5 Riff 2     X4


Termina con intro

            
            
Suggest correction
Creating personal tab
Creating personal tab
You can edit any tab online and save it as your Personal.

You can edit, replace or remove any tab part or add personal notes – all changes will be seen only by you.

Personal tabs can be accessed anytime from any device, even offline.
Learn more »
Give kudos to tab author, rate the tab!
1 2 3 4 5
comments
print report bad tab
guest
Wanna post a correction for this tab? Suggest correction