Oops, an error
Loading. Please wait.

El Rio tab

version 1
version 1

Whole song

63 views 1 this week
no commentswrite comment
1 2 3 4 5
3 more votes to show rating
add to favorites
×
Save as Personal and add changes to this tab that will be seen only by you. Learn more ›
×
You can save this tab as Personal to edit and correct it or add notes. All changes will be seen only by you. Learn more »
launch autoscroll
font size
0
reset
how to read this tab
guitar tuner
edit
Autoscroll
slow
fast
+/-
esc
set tempo
stop
El Rio                  Guitarra armónica


Esta tablatura guarda correspondencia con la de guitarra rítmica.


 33     34     35     36     37
E||------|------|------|------|-----------------|
B||------|------|------|------|-----------------|
G||------|------|------|------|-------4---------|
D||------|------|------|------|--7---------7----|
A||------|------|------|------|-----------------|
E||------|------|------|------|-----------------|


38              39                40                        
-----------------|-----------------|-----------------|
-----------------|-----------------|-----------------|
--4---------4----|-------4---------|--4---------4----|
-------7---------|--7---------7----|-------7---------|
-----------------|-----------------|-----------------|
-----------------|-----------------|-----------------|


41                                                      
-----------------|-----------------|-----------------|
-----------------|-----------------|-----------------|
-------4---------|--4---------4----|-------4---------|
--7---------7----|-------7---------|--7---------7----|
-----------------|-----------------|-----------------|
-----------------|-----------------|-----------------|


44                                                     
----------------|-----------------|-----------------|
--6--------5----|-------1---------|--1---------1----|
----------------|--4---------4----|-------4---------|
----------------|-----------------|-----------------|
----------------|-----------------|-----------------|
----------------|-----------------|-----------------|


47                                                                      
-----------------|-----------------|-------5--------|----------------|
-------1---------|--1---------1----|-------2--------|-------9--------|
--4---------4----|-------4---------|-------2--------|-------9--------|
-----------------|-----------------|-------2--------|-------9--------|
-----------------|-----------------|--0-------------|--7-------------|
-----------------|-----------------|----------------|----------------|


51                                                                   
-----------------|--5------------|---------------|----------------|
-------10--------|--2------------|------9--------|--9--------9----|
-------11--------|--2------------|------9--------|--9--------9----|
-------11--------|--2------------|---------------|----------------|
--9--------------|---------------|---------------|----------------|
-----------------|---------------|---------------|----------------|


55                                                                  
---------------|----------------|---------------|----------------|
------9--------|--9--------9----|------9--------|--9--------9----|
------9--------|--9--------9----|------9--------|--9--------9----|
---------------|----------------|---------------|----------------|
---------------|----------------|---------------|----------------|
---------------|----------------|---------------|----------------|


59                                                                  
---------------|----------------|---------------|----------------|
------9--------|--9--------9----|------9--------|--9--------9----|
------9--------|--9--------9----|------9--------|--9--------9----|
---------------|----------------|---------------|----------------|
---------------|----------------|---------------|----------------|
---------------|----------------|---------------|----------------|


63                                                                  
---------------|----------------|---------------|----------------|
------9--------|--9--------9----|------9--------|--9--------9----|
------9--------|--9--------9----|------9--------|--9--------9----|
---------------|----------------|---------------|----------------|
---------------|----------------|---------------|----------------|
---------------|----------------|---------------|----------------|


67                                                                  
---------------|----------------|------------3----|--------------|
------9--------|--9--------9----|-------1---------|--------------|
------9--------|--9--------9----|--2--------------|--------------|
---------------|----------------|-----------------|--------------|
---------------|----------------|-----------------|--------------|
---------------|----------------|-----------------|--------------|


71                                                                   
----------------|--1--------0----|------------3----|--------------|
-----------1----|----------------|-------1---------|--------------|
------2---------|----------------|--2--------------|--------------|
----------------|----------------|-----------------|--------------|
----------------|----------------|-----------------|--------------|
----------------|----------------|-----------------|--------------|


75                                                                   
----------------|--1--------0----|------------3----|--------------|
-----------1----|----------------|-------1---------|--------------|
------2---------|----------------|--2--------------|--------------|
----------------|----------------|-----------------|--------------|
----------------|----------------|-----------------|--------------|
----------------|----------------|-----------------|--------------|


79                                                                   
----------------|--1--------0----|------------3----|--------------|
-----------1----|----------------|-------1---------|--------------|
------2---------|----------------|--2--------------|--------------|
----------------|----------------|-----------------|--------------|
----------------|----------------|-----------------|--------------|
----------------|----------------|-----------------|--------------|


83                                                                    
----------------|--1--------0----|--12------------|--10------------|
-----------1----|----------------|----------------|----------------|
------2---------|----------------|----------------|----------------|
----------------|----------------|----------------|----------------|
----------------|----------------|----------------|----------------|
----------------|----------------|----------------|----------------|


87                                                                    
----------------|----------------|----------------|----------------|
--13------------|--12------------|--10------------|----------------|
----------------|----------------|----------------|--12------------|
----------------|----------------|----------------|----------------|
----------------|----------------|----------------|----------------|
----------------|----------------|----------------|----------------|


91                                                                  
---------------|----------------|----------------|---------------|
---------------|----------------|----------------|---------------|
--9------------|----------------|----------------|---------------|
---------------|--12------------|--10------------|--9------------|
---------------|----------------|----------------|---------------|
---------------|----------------|----------------|---------------|


95                                                                    
----------------|----------------|--12/9------9/7--|------7/5------|
----------------|----------------|--12/9------9/7--|------7/5------|
----------------|----------------|-----------------|---------------|
----------------|----------------|-----------------|---------------|
--12------------|--10------------|-----------------|---------------|
----------------|----------------|-----------------|---------------|


99                                                                  
--5/2------2/5--|-------5--------|----------------|--------------|
--5/2------2/5--|-------5--------|--7/5------5----|--------------|
----------------|----------------|--6/4------4----|--------------|
----------------|----------------|----------------|--------------|
----------------|----------------|----------------|--------------|
----------------|----------------|----------------|--------------|


103                                                                   
--------------|--------------|--12/9-------9/7--|-------7/---9----|
--------------|--------------|--12/9-------9/7--|-------7/---9----|
--------------|--------------|------------------|-----------------|
--------------|--------------|------------------|-----------------|
--------------|--------------|------------------|-----------------|
--------------|--------------|------------------|-----------------|


107                                                                     
--4/-------2----|--2/4------4----|-----------------|----------------|
--4/-------2----|--2/4------4----|--4----4/---2----|--2/---4--------|
----------------|----------------|--4----4/---2----|--2/---4--------|
----------------|----------------|-----------------|----------------|
----------------|----------------|-----------------|----------------|
----------------|----------------|-----------------|----------------|


111                                                                   
--------------|--------------||-------------4----|----------------|
--------------|--------------||-------------5----|----------------|
--------------|--------------||*-------6---------|-----------6----|
--------------|--------------||*--7--------------|------7---------|
--------------|--------------||------------------|----------------|
--------------|--------------||------------------|----------------|


115                               3x                   
--4-------------|-------4---------||-------------4----|
--5-------------|-------5---------||-------------5----|
----------------|--6-------------*||*-------6---------|
-----------7----|----------------*||*--7--------------|
----------------|-----------------||------------------|
----------------|-----------------||------------------|


118                                                   3x
------------4----|------------4----|------------4-----||
------------5----|------------5----|------------5-----||
-------6---------|-------6---------|-------6---------*||
--6--------------|--4--------------|--6--------------*||
-----------------|-----------------|------------------||
-----------------|-----------------|------------------||


121                                                                
--7------------|--6------------|--5------------|--------------||
--7------------|--7------------|--7------------|--------------||
--7------------|--6------------|--7------------|--------------||
--9------------|--8------------|--7------------|--------------||
---------------|---------------|---------------|--------------||
---------------|---------------|---------------|--------------||


Que la disfrutes! Siempre Tacvba!

            
            
Suggest correction
Creating personal tab
Creating personal tab
You can edit any tab online and save it as your Personal.

You can edit, replace or remove any tab part or add personal notes – all changes will be seen only by you.

Personal tabs can be accessed anytime from any device, even offline.
Learn more »
Give kudos to tab author, rate the tab!
1 2 3 4 5
comments
print report bad tab
guest
Wanna post a correction for this tab? Suggest correction