Oops, an error
Loading. Please wait.

La Muerte Chiquita tab

version 1
version 1

Whole song

Interactive

133 views 1 this week
no commentswrite comment
1 2 3 4 5
1 last vote to show rating
add to favorites
×
Save as Personal and add changes to this tab that will be seen only by you. Learn more ›
×
You can save this tab as Personal to edit and correct it or add notes. All changes will be seen only by you. Learn more »
launch autoscroll
font size
0
reset
how to read this tab
guitar tuner
edit
Autoscroll
slow
fast
+/-
esc
set tempo
stop
Capo II
La canción se toca así
E|---a-a----a-a--|
B|---m-m----m-m--|
G|---i-i----i-i--|
D|---------------|
A|--------p------|
E|-p-------------|

  Em
Dame la muerte chiquita
            B7
Dame la muerte pequeña
  Am            Em
Y así tal vez en tus brazos
  B7            Em
alcanzare gracia plena

  Em
Su escencia de alta marea
            B7
sus besos de tamarindo
  Am            Em
Sus pestañas 2 palmeras
  B7            Em
A cuyo vaiven me rindo

  Am            Em
Dicen que usted trae las sombras
  B7            Em
Y por dentro está toda herida

   Am         Em         B7    Em
E|---------------------------------------|
B|-------3-1--------1-0------------------|
G|---4-0--------4-0------2-2-2-4h5-4-2-4-|
D|-2----------2--------------------------|
A|---------------------------------------|
E|---------------------------------------|

    Am         Em         B7    Em
E|------------------------------------------|
B|-------3-1--------1-0---------------------|
G|---4-0--------4-0------2-2-0-------0------|
D|-2----------2----------------4-2-----2----|
A|---------------------------------2--------|
E|------------------------------------------|

  Em
Dame la muerte chiquita
            B7
Antes del  ultimo sueño
  Am            Em
Una cosa a Dios yo pido
  B7            Em
Segundo ser su dueño


Esto se toca con lo de arriba
    Em           B7      Am     Em          B7          Em
E|--7----7--5--3-2--2-3-5--5--7-7-7-7--12-12-11-11-7-7--7-5-3--0-------|
B|-5----5--3--1--0--0-1-4--4--5-5-5-5--13-13-12-12-8-8-----------------|
G|------------------------------------------------------------0--------|

  Em
La venganza es cosa dulce
            B7
y este machete que tengo
  Am            Em
Es por si alguien le hizo daño
  B7            Em
que yo por usted me muero

  Am            Em
Es por si alguien le hizo daño
  B7
que yo por usted...

   Am   Em   B7   Em       Am   Em   B7   Em
E|-8-8--7-7--5-5--3-3-0----8-8--7-7--5-5--3-3---|
B|-8-8--7-7--5-5--3-3-0----8-8--7-7--5-5--3-3---|
G|----------------------------------------------|

   Am   Em   B7   Em       Am   Em   B7   Em
E|-8-8--7-7--5-5--3-3-0-0---8-8--7-7--5-5--3-3--|
B|-8-8--7-7--5-5--3-3-0-0---8-8--7-7--5-5--3-3--|
G|----------------------------------------------|

  Am            Em
Dicen que usted trae las sombras
  B7            Em
Y por dentro está toda herida

  Am            Em
Por una noche en su lecho
  B7            Em
Soy capaz de dar la vida.

  Am Em B7 Em

   Am                 Em     B7           Em
E|-14-12----14-12-----8-7-7--12-12-11-11--14-15-14-12-12--14-15--|
B|-------13-------13---------------------------------------------|
G|---------------------------------------------------------------|


   Am                 Em     B7           Em    B7 Em
E|-14-12----14-12-----8-7-7--5-7-8-7-5-3-2-3-0---3-0-|
B|-------13-------13---------------------------0-----|
G|---------------------------------------------------|

            
            
Suggest correction
Creating personal tab
Creating personal tab
You can edit any tab online and save it as your Personal.

You can edit, replace or remove any tab part or add personal notes – all changes will be seen only by you.

Personal tabs can be accessed anytime from any device, even offline.
Learn more »
Give kudos to tab author, rate the tab!
1 2 3 4 5
comments
print report bad tab
guest
Wanna post a correction for this tab? Suggest correction