Oops, an error
Loading. Please wait.

Las Flores tab

version 1
version 1

Whole song

Interactive

765 views 6 this week
no commentswrite comment
1 2 3 4 5
3 more votes to show rating
add to favorites
×
Save as Personal and add changes to this tab that will be seen only by you. Learn more ›
×
You can save this tab as Personal to edit and correct it or add notes. All changes will be seen only by you. Learn more »
launch autoscroll
font size
0
reset
how to read this tab
guitar tuner
edit
Autoscroll
slow
fast
+/-
esc
set tempo
stop
STANDARD

6=E   3=G
5=A   2=B
4=D   1=E

Guitarra 1

intro: tiempo   3/4
    1    2    3     1    2    3     1    2    3      1      2     3
E||-6-6--6-6--x-x-|-5-5--5-5--x-x-|-6-6--6-6--x-x-|--8--8---8--8--x-x-||
B||-6-6--6-6--x-x-|-6-6--6-6--x-x-|-8-8--8-8--x-x-|-10-10--10-10--x-x-||
G||-7-7--7-7--x-x-|-7-7--7-7--x-x-|-8-8--8-8--x-x-|-10-10--10-10--x-x-||x3
D||-8-8--8-8--x-x-|-7-7--7-7--x-x-|-8-8--8-8--x-x-|-10-10--10-10--x-x-||
A||-8-8--8-8--x-x-|-5-5--5-5--x-x-|-6-6--6-6--x-x-|--8--8---8--8--x-x-||
E||-6-6--6-6--x-x-|-x-x--x-x--x-x-|-x-x--x-x--x-x-|--x--x---x--x------||

G 1                                    hayyy
     1    2    3       1    2    3         1    2    3    4
E||--6-6--6-6--x-x--|--5-5--5-5--x-x--| |--6----6----8----8---||
B||--6-6--6-6--x-x--|--6-6--6-6--x-x--|4|--8----8---10---10---||
G||--7-7--7-7--x-x--|--7-7--7-7--x-x--|/|--8----8---10---10---||
D||--8-8--8-8--x-x--|--7-7--7-7--x-x--|4|--8----8---10---10---||
A||--8-8--8-8--x-x--|--5-5--5-5--x-x--| |--6----6----8----8---||
E||--6-6--6-6--x-x--|--x-x--x-x--x-x--| |---------------------||


G1 verso tiempo 4/4

     ven y dime todas esas cosas.......
     1    2      3    4       1    2      3     4
E||--x-6--x-6----x-5--x-5--|--x-6--x-6----x--8--x--8--||
B||--x-6--x-6----x-6--x-6--|--x-8--x-8----x-10--x-10--||
G||--x-7--x-7----x-7--x-7--|--x-8--x-8----x-10--x-10--||x3
D||--x-8--x-8----x-7--x-7--|--x-8--x-8----x-10--x-10--||
A||--x-8--x-8----x-5--x-5--|--x-6--x-6----x--8--x--8--||
E||------------------------|--------------------------||

    en mi oido
     1    2    3    4       1    2    3    4
E||--x-6--x-6--x-6--x-6--|--x-6--x-6--x-6--x-6----||
B||--x-6--x-6--x-6--x-6--|--x-8--x-8--x-8--x-8----||
G||--x-7--x-7--x-7--x-7--|--x-8--x-8--x-8--x-8----||
D||--x-8--x-8--x-8--x-8--|--x-8--x-8--x-8--x-8----||
A||--x-8--x-8--x-8--x-8--|--x-6--x-6--x-6--x-6----||
E||--x-6--x-6--x-6--x-6--|------------------------||


G1
    y dejame estrechar tus manos.......
     1    2      3    4       1    2      3     4
E||--x-6--x-6----x-5--x-5--|--x-6--x-6----x--8--x--8--||
B||--x-6--x-6----x-6--x-6--|--x-8--x-8----x-10--x-10--||
G||--x-7--x-7----x-7--x-7--|--x-8--x-8----x-10--x-10--||x3
D||--x-8--x-8----x-7--x-7--|--x-8--x-8----x-10--x-10--||
A||--x-8--x-8----x-5--x-5--|--x-6--x-6----x--8--x--8--||
E||------------------------|--------------------------||

    que me aga sentir bien
     1    2    3    4       1    2    3    4
E||--x-6--x-6--x-6--x-6--|--x-6--x-6--x-6--x-6----||
B||--x-6--x-6--x-6--x-6--|--x-8--x-8--x-8--x-8----||
G||--x-7--x-7--x-7--x-7--|--x-8--x-8--x-8--x-8----||
D||--x-8--x-8--x-8--x-8--|--x-8--x-8--x-8--x-8----||
A||--x-8--x-8--x-8--x-8--|--x-6--x-6--x-6--x-6----||
E||--x-6--x-6--x-6--x-6--|------------------------||

CORO: G1

   Yo te escuchare en todo el silencio del planeta.......
      F      D#     Dm      D#         F        D#       Dm      D#
E||---8--|---6--|---5---|---6--6---|---8----|---6----|---5---|---6---||
B||--10--|---8--|---6---|---8--8---|--10----|---8----|---6---|---8---||
G||--10--|---8--|---7---|---8--8---|--10----|---8----|---7---|---8---||
D||--10--|---8--|---7---|---8--8---|--10----|---8----|---7---|---8---||
A||---8--|---6--|---5---|---6--6---|---8----|---6----|---5---|---6---||
E||------|------|-------|----------|--------|--------|-------|-------||


G1
     1      2      3      4       1      2      3       4
E||--x-6----x-6----x-5----x-5--|--x-6----x-6----x--8----x--8--||
B||--x-6----x-6----x-6----x-6--|--x-8----x-8----x-10----x-10--||
G||--x-7----x-7----x-7----x-7--|--x-8----x-8----x-10----x-10--||x3
D||--x-8----x-8----x-7----x-7--|--x-8----x-8----x-10----x-10--||
A||--x-8----x-8----x-5----x-5--|--x-6----x-6----x--8----x--8--||
E||----------------------------|------------------------------||
 ||
 ||    melodica
 ||
E||---|-18-17-18-20--18-17-15---------------------------------||
B||---|------------------------18--16-15-16-18--16-15---------||
G||-15|-------------------------------------------------17-15-||x3
D||---|-------------------------------------------------------||
A||---|-------------------------------------------------------||
E||---|-------------------------------------------------------||

   G1
      1     2     3     4         1     2     3     4
E||---x-6---x-6---x-6---x-6---|---x-6---x-6---x-6---x-6----||
B||---x-6---x-6---x-6---x-6---|---x-8---x-8---x-8---x-8----||
G||---x-7---x-7---x-7---x-7---|---x-8---x-8---x-8---x-8----||
D||---x-8---x-8---x-8---x-8---|---x-8---x-8---x-8---x-8----||
A||---x-8---x-8---x-8---x-8---|---x-6---x-6---x-6---x-6----||
E||---x-6---x-6---x-6---x-6---|----------------------------||
 ||
 ||
 ||    melodica
 ||
E||-18-17-18-20--18-17-15----------------------------------||
B||------------------------18--16-15-----------------------||
G||----------------------------------17--15-------------15-||
D||------------------------------------------19--17--19----||
A||--------------------------------------------------------||
E||--------------------------------------------------------||


G1 verso 2
   dejame ver como es que floreces.....
     1    2      3    4       1    2      3     4
E||--x-6--x-6----x-5--x-5--|--x-6--x-6----x--8--x--8--||
B||--x-6--x-6----x-6--x-6--|--x-8--x-8----x-10--x-10--||
G||--x-7--x-7----x-7--x-7--|--x-8--x-8----x-10--x-10--||x3
D||--x-8--x-8----x-7--x-7--|--x-8--x-8----x-10--x-10--||
A||--x-8--x-8----x-5--x-5--|--x-6--x-6----x--8--x--8--||
E||------------------------|--------------------------||

  G1  solo un poco de tu ser
     1    2    3    4       1    2    3    4
E||--x-6--x-6--x-6--x-6--|--x-6--x-6--x-6--x-6----||
B||--x-6--x-6--x-6--x-6--|--x-8--x-8--x-8--x-8----||
G||--x-7--x-7--x-7--x-7--|--x-8--x-8--x-8--x-8----||
D||--x-8--x-8--x-8--x-8--|--x-8--x-8--x-8--x-8----||
A||--x-8--x-8--x-8--x-8--|--x-6--x-6--x-6--x-6----||
E||--x-6--x-6--x-6--x-6--|------------------------||
 ||
 || G2
 ||
E||----------------------|------------------------||
B||----------------------|------------------------||
G||----------------------|------------------------||
D||----------------------|-----------13-12---11---||
A||----------------------|------------------------||
E||----------------------|------------------------||


  G1
    y seis veces para vivirte
     1    2      3    4       1    2      3     4
E||--x-6--x-6----x-5--x-5--|--x-6--x-6----x--8--x--8--||
B||--x-6--x-6----x-6--x-6--|--x-8--x-8----x-10--x-10--||
G||--x-7--x-7----x-7--x-7--|--x-8--x-8----x-10--x-10--||
D||--x-8--x-8----x-7--x-7--|--x-8--x-8----x-10--x-10--||
A||--x-8--x-8----x-5--x-5--|--x-6--x-6----x--8--x--8--||
E||------------------------|--------------------------||
 ||
 ||G2
 ||
E||--(13---13---15---13----------------------------13--||
B||--(15----------------16--15--16----15--16---15------||
G||--(14-----------------------------------------------||
D||----------------------------------------------------||
A||----------------------------------------------------||
E||----------------------------------------------------||


 G1
   debajo de una misma luna
     1    2      3    4       1    2      3     4
E||--x-6--x-6----x-5--x-5--|--x-6--x-6----x--8--x--8--||
B||--x-6--x-6----x-6--x-6--|--x-8--x-8----x-10--x-10--||
G||--x-7--x-7----x-7--x-7--|--x-8--x-8----x-10--x-10--||
D||--x-8--x-8----x-7--x-7--|--x-8--x-8----x-10--x-10--||
A||--x-8--x-8----x-5--x-5--|--x-6--x-6----x--8--x--8--||
E||------------------------|--------------------------||
 ||
 ||G2
 ||
E||--(13---13---15---13--------------------------------||
B||--(15----------------16--15--16----15--16---15------||
G||--(14-------------------------------------------15--||
D||----------------------------------------------------||
A||----------------------------------------------------||
E||----------------------------------------------------||

G1
   y otras nueve pasaran               para
     1    2      3    4       1    2      3     4
E||--x-6--x-6----x-5--x-5--|--x-6--x-6----x--8--x--8--||
B||--x-6--x-6----x-6--x-6--|--x-8--x-8----x-10--x-10--||
G||--x-7--x-7----x-7--x-7--|--x-8--x-8----x-10--x-10--||
D||--x-8--x-8----x-7--x-7--|--x-8--x-8----x-10--x-10--||
A||--x-8--x-8----x-5--x-5--|--x-6--x-6----x--8--x--8--||
E||------------------------|--------------------------||
 ||
 ||G2
 ||
E||--(13---13---15---13----------------------------13--||
B||--(15----------------16--15--16----15--16---15------||
G||--(14-----------------------------------------------||
D||----------------------------------------------------||
A||----------------------------------------------------||
E||----------------------------------------------------||


    Sentir que nuevas flores naceran
  1    2    3    4       1    2    3    4
E||--x-6--x-6--x-6--x-6--|--x-6--x-6--x-6--x-6----||
B||--x-6--x-6--x-6--x-6--|--x-8--x-8--x-8--x-8----||
G||--x-7--x-7--x-7--x-7--|--x-8--x-8--x-8--x-8----||
D||--x-8--x-8--x-8--x-8--|--x-8--x-8--x-8--x-8----||
A||--x-8--x-8--x-8--x-8--|--x-6--x-6--x-6--x-6----||
E||--x-6--x-6--x-6--x-6--|------------------------||
 ||
 ||G2
 ||
E||-------13--------------------------------------||
B||---15-------15---16-15-------------------------||
G||------------------------15---------------------||
D||-----------------------------------------------||
A||-----------------------------------------------||
E||-----------------------------------------------||


 G2   y que cada estrella                  fuece una flor
    F                D#                Dm               D#
E||-10/--13-11--8--10-10--13-11---8--10-10--13-11--8--10-10---||
B||-10/--13-11--8--10-10--13-11---8--10-10--13-11--8--10-10---||
G||-----------------------------------------------------------||
D||-----------------------------------------------------------||
A||-----------------------------------------------------------||
E||-----------------------------------------------------------||

 G2                 y asi regalarte          todo un rasimo de estrellas
                 F                D#               Dm         D#  F  A#
E||-13-11---8--10-10--13-11--8--10-10--13-11--8--10-10--13--8--10-10--||
B||-13-11---8--10-10--13-11--8--10-10--13-11--8--10-10--13--8--10-10--||
G||-------------------------------------------------------------------||
D||-------------------------------------------------------------------||
A||-------------------------------------------------------------------||
E||-------------------------------------------------------------------||

    G2
      A#
E||--(13---13---15---13----------------------------13--||
B||--(15----------------16--15--16----15--16---15------||
G||--(14-----------------------------------------------||
D||----------------------------------------------------||
A||----------------------------------------------------||
E||----------------------------------------------------||
    G2
      A#
E||--(13---13---15---13----------------------------13--||
B||--(15----------------16--15--16----15--16---15------||
G||--(14-----------------------------------------------||
D||----------------------------------------------------||
A||----------------------------------------------------||
E||----------------------------------------------------||

  G2
E||--18-18-18-18--17-17-17--15-15-15---13-13-13--------||
B||----------------------------------------------------||
G||----------------------------------------------------||
D||----------------------------------------------------||
A||----------------------------------------------------||
E||----------------------------------------------------||

   G2                                       Nooooo
E||-13-15-13----13----------13----------13-------------||
B||----------16----16-15-16----16-15-16----16-15-13----||
G||----------------------------------------------------||
D||----------------------------------------------------||
A||----------------------------------------------------||
E||----------------------------------------------------||

G1  3/4
  dejes que amanesca no dejes que la noche caiga
     A#             Dm              G#
E||--6-6--6-6--x-|--5-5--5-5--x-|--4-4--4-4--x-||
B||--6-6--6-6--x-|--6-6--6-6--x-|--4-4--4-4--x-||
G||--7-7--7-7--x-|--7-7--7-7--x-|--5-5--5-5--x-||
D||--8-8--8-8--x-|--7-7--7-7--x-|--6-6--6-6--x-||
A||--8-8--8-8--x-|--5-5--5-5--x-|--6-6--6-6--x-||
E||--6-6--6-6--x-|--5-5--5-5--x-|--4-4--4-4--x-||


G1
   no dejes que el sol salga
      G              F#             F
E||---3-3--3-3--x-|--2-2--2-2--x-|--1-1--1-1--x-||
B||---3-3--3-3--x-|--2-2--2-2--x-|--1-1--1-1--x-||
G||---4-4--4-4--x-|--3-3--3-3--x-|--2-2--2-2--x-||
D||---5-5--5-5--x-|--4-4--4-4--x-|--3-3--3-3--x-||
A||---5-5--5-5--x-|--4-4--4-4--x-|--3-3--3-3--x-||
E||---3-3--3-3--x-|--2-2--2-2--x-|--1-1--1-1--x-||


G1
  solo dejame estar junto a ti
     E              F
E||--0-0--0-0--X-|--1-1--1-1--X---||
B||--0-0--0-0--X-|--1-1--1-1--X---||
G||--1-1--1-1--X-|--2-2--2-2--X---||
D||--2-2--2-2--X-|--3-3--3-3--X---||
A||--2-2--2-2--X-|--3-3--3-3--X---||
E||--0-0--0-0--X-|--1-1--1-1--X---||

G1  tiempo 4/4
     1     2     3     4       1     2    3       4
E||--x-6---x-6---x-5--x-5--|--x-6---x-6---x--8----x--8--||
B||--x-6---x-6---x-6--x-6--|--x-8---x-8---x-10----x-10--||
G||--x-7---x-7---x-7--x-7--|--x-8---x-8---x-10----x-10--||
D||--x-8---x-8---x-7--x-7--|--x-8---x-8---x-10----x-10--||x2
A||--x-8---x-8---x-5--x-5--|--x-6---x-6---x--8----x--8--||
E||------------------------|----------------------------||


G1
     1      2      3      4       1      2      3       4
E||--x-6----x-6----x-5----x-5--|--x-6----x-6----x--8----x--8--||
B||--x-6----x-6----x-6----x-6--|--x-8----x-8----x-10----x-10--||
G||--x-7----x-7----x-7----x-7--|--x-8----x-8----x-10----x-10--||
D||--x-8----x-8----x-7----x-7--|--x-8----x-8----x-10----x-10--||
A||--x-8----x-8----x-5----x-5--|--x-6----x-6----x--8----x--8--||
E||----------------------------|------------------------------||
 ||
 ||    melodica
 ||
E||---|-18-17-18-20--18-17-15---------------------------------||
B||---|------------------------18--16-15-16-18--16-15---------||
G||-15|-------------------------------------------------17-15-||
D||---|-------------------------------------------------------||
A||---|-------------------------------------------------------||
E||---|-------------------------------------------------------||


G1
      1      2      3      4       1      2      3       4
E||---x-6----x-6----x-5----x-5--|--x-6----x-6----x--8----x--8--||
B||---x-6----x-6----x-6----x-6--|--x-8----x-8----x-10----x-10--||
G||---x-7----x-7----x-7----x-7--|--x-8----x-8----x-10----x-10--||
D||---x-8----x-8----x-7----x-7--|--x-8----x-8----x-10----x-10--||
A||---x-8----x-8----x-5----x-5--|--x-6----x-6----x--8----x--8--||
E||-----------------------------|------------------------------||
 ||
 ||    melodica
 ||
E||--18-17-18-20--18-17-15-------------------------------------||
B||-------------------------18--17--15--------------------14---||
G||-------------------------------------17--15--14-----14------||
D||-------------------------------------------------17---------||
A||------------------------------------------------------------||
E||------------------------------------------------------------||

G1

E||---6---||
B||---6---||
G||---7---||fin
D||---8---||
A||---8---||
E||---6---||


eicap@

            
            
Suggest correction
Creating personal tab
Creating personal tab
You can edit any tab online and save it as your Personal.

You can edit, replace or remove any tab part or add personal notes – all changes will be seen only by you.

Personal tabs can be accessed anytime from any device, even offline.
Learn more »
Give kudos to tab author, rate the tab!
1 2 3 4 5
comments
print report bad tab
guest
Wanna post a correction for this tab? Suggest correction