Oops, an error
Loading. Please wait.
We have an official Come A Little Closer tab made by UG professional guitarists. Check out the tab »
×
4,219 views 18 this week
no commentswrite comment
1 2 3 4 5
x 5
add to favorites
×
Save as Personal and add changes to this tab that will be seen only by you. Learn more ›
×
You can save this tab as Personal to edit and correct it or add notes. All changes will be seen only by you. Learn more »
launch autoscroll
font size
0
reset
guitar tuner
edit
Autoscroll
slow
fast
+/-
esc
set tempo
stop
Difficulty
intermediate
I think that the previous tabs I've seen for this song are good, but I just wanted to
submit my own take on the song. It requires some fast movement from the very top of the
neck back down to the bottom and there are many fast and slightly complex fingerings 
which makes me think of it as an intermediate song. This is my first bass tab and I would
really love your feedback. Enjoy!~
 

This is the main riff played throughout the verses. it will have a different ending
depending on how many times it has been played.
G|------------------------------------------------------------------------------------------|
D|-------------------------------------------------9-11-------------------------------------|
A|-------------------6-7/9-11--9-11--9-11--9-11-12------9--7-9--7-9--7-11-9-7---------------|
E|--9--7-9--7-9--7-9----------------------------------------------------------11-9--7/9-9---|

This is played after the first time the main riff is completed.
G|------------------------------------------------------------------------------------------|
D|------------------------------------------------------------------------------------------|
A|------------------------------------------------------------------------------------------|
E|--9-0-2-4-0-------------------------------------------------------------------------------|

This is played after the second time the main riff is completed.
G|------------------------------------------------------------------------------------------|
D|------------------------------------------------------------------------------------------|
A|-------11---------------------------------------------------------------------------------|
E|--9/12----12-11---------------------------------------------------------------------------|

The next part of the verse acts as a lead in to the chorus.
G|------------------------------------------------------------------------------------------|
D|--------------------------------------------------13h14p13--------------------------------|
A|-------------------6-7/9-11--9-11--9-11--9-11--11----------11-9--7-9--7-9--7-11-9-7-------|
E|--9--7-9--7-9--7-9------------------------------------------------------------------11----|

Chorus I
G|------------------------------------------------------------------------------------------|
D|------------------------------------------------------------------------------------------|
A|-------------9/11-11/0--0--0--0----------------4--4--4--4--4--4--4-4--4/0--0--0--0--------|
E|-9-9-9-9-7-7---------------------2--2--2-2--2---------------------------------------------|


G|------------------------------------------------------------------------------------------|
D|-------------------------------4-6-7-6----------------------------------------------------|
A|-------------4--4--4--4--4-6-7---------7/0--0--0--0--------------4--4--4--4--4--4--4-4----|
E|2--2--2-2--2----------------------------------------2--2--2-2--2--------------------------|


G|------------------------------------------------------------------------------------------|
D|----------------------------------------------4-6-7-6-------------------------------------|
A|-4/0--0--0--0--------------4--4--4--4--4-6-7----------7/0--0--0--0--------------4----2--4-|
E|--------------2--2--2-2--2-----------------------------------------2--2--2-2--2-----------|

Verse II
G|------------------------------------------------------------------------------------------|
D|-------------------------------------------------9-11-------------------------------------|
A|-------------------6-7/9-11--9-11--9-11--9-11-12------9--7-9--7-9--7-11-9-7---------------|
E|--9--7-9--7-9--7-9----------------------------------------------------------11-9--7/9-9---|

This is played after the first time the main riff is completed.
G|------------------------------------------------------------------------------------------|
D|------------------------------------------------------------------------------------------|
A|-------11---------------------------------------------------------------------------------|
E|--9/12----12-11---------------------------------------------------------------------------|

The next part of the verse acts as a lead in to the chorus.
G|------------------------------------------------------------------------------------------|
D|--------------------------------------------------13h14p13--------------------------------|
A|-------------------6-7/9-11--9-11--9-11--9-11--11----------11-9--7-9--7-9--7-11-9-7-------|
E|--9--7-9--7-9--7-9------------------------------------------------------------------11----|


Chorus II
G|------------------------------------------------------------------------------------------|
D|------------------------------------------------------------------------------------------|
A|-------------9/11-11/0--0--0--0----------------4--4--4--4--4--4--4-4--4/0--0--0--0--------|
E|-9-9-9-9-7-7---------------------2--2--2-2--2---------------------------------------------|


G|------------------------------------------------------------------------------------------|
D|-------------------------------4-6-7-6----------------------------------------------------|
A|-------------4--4--4--4--4-6-7---------7/0--0--0--0--------------4--4--4--4--4--4--4-4----|
E|2--2--2-2--2----------------------------------------2--2--2-2--2--------------------------|


G|------------------------------------------------------------------------------------------|
D|----------------------------------------------4-6-7-6-------------------------------------|
A|-4/0--0--0--0--------------4--4--4--4--4-6-7----------7/0--0--0--0--------------4--4--4--4|
E|--------------2--2--2-2--2-----------------------------------------2--2--2-2--2-----------|
                                         (Bridge starts here)
G|------------------------------------------------------------------------------------------|
D|------------------------------------------------------------------------------------------|
A|--4--4--4-4--4/0--0--0--0--------------4--4--4--4--4--4--4--4-----------------------------|
E|--------------------------2--2--2-2--2--------------------------2--2--2--2--2--2--2--2----|


G|---------------------------------------------------------------------------------------------|
D|---------------------------------------------------------------------------------------------|
A|---------------------------------------------------------------------------------------------|
E|--5--5--5--5--5--5--5--5/2--2--2--2--2--2--2--2/5--5--5--5--5--5--5--5/2--2--2--2--2--2--2--2|


G|------------------------|
D|------------------------|
A|------------------------|
E|--5----4----2--0--2--4--|

(Ten thousand people stand alone now...etc)
G|------------------------|
D|------------------------|
A|------------4-----------|
E|--5----2-------2--4-----| x6


Chorus III/End
G|------------------------------------------------------------------------------|
D|------------------------------------------------------------------------------|
A|0--0--0--0----------------4--4--4--4--4--4--4-4--4/0--0--0--0-----------------|
E|------------2--2--2-2--2------------------------------------------------------|


G|------------------------------------------------------------------------------------------|
D|-------------------------------4-6-7-6----------------------------------------------------|
A|-------------4--4--4--4--4-6-7---------7/0--0--0--0--------------4--4--4--4--4--4--4-4----|
E|2--2--2-2--2----------------------------------------2--2--2-2--2--------------------------|


G|------------------------------|
D|------------------------------|
A|-4/0--0--0--0--------------4--|
E|--------------2--2--2-2--2----|

            
            
Suggest correction
Creating personal tab
Creating personal tab
You can edit any tab online and save it as your Personal.

You can edit, replace or remove any tab part or add personal notes – all changes will be seen only by you.

Personal tabs can be accessed anytime from any device, even offline.
Learn more »
comments
print report bad tab
guest
Wanna post a correction for this tab? Suggest correction