Oops, an error
Loading. Please wait.
We have Chord Pro version of Come A Little Closer.
It's the closest thing you can get to the original song and it has interactive parts. Check out the tab »
×
14,816 views 78 this week
2 commentsread comments
1 2 3 4 5
x 10
add to favorites
×
Save as Personal and add changes to this tab that will be seen only by you. Learn more ›
×
You can save this tab as Personal to edit and correct it or add notes. All changes will be seen only by you. Learn more »
launch autoscroll
font size
0
reset
how to read this tab
guitar tuner
edit
Autoscroll
slow
fast
+/-
esc
set tempo
stop
Author
Difficulty
Cage the Elephant - Come A Little Closer
Tuning: Standard


e|----4--4--4-------------4--4--4----------------------------------|
B|-----5--5--5-----------4-4--4--4---------------------------------|
G|---6--6--6--6---------4---4--4--4--------------------------------|
D|--6------------------6-------------------------------------------|
A|-4---------------------------------------------------------------|
E|-----------------------------------------------------------------|
     C#m               G#m                                         |
                                                                   |(x2)
                                                                   |
e|-------2--2--2----------------------4----------------------------|
B|-----2--2--2--2-------------------5---5--4---4-4-----------------|
G|----2----2--2--2-----------------6----------6-6------------------|
D|---4----------------------------6--------------------------------|
A|-----------------------------------------------------------------|
E|-----------------------------------------------------------------|
   F#m                          C#m

e|----4--4--4---------------4--4--4--------------------------------|
B|-----5--5--5-------------4-4--4--4-------------------------------|
G|---6--6--6--6-----------4---4--4--4------------------------------|
D|--6--------------------6-----------------------------------------|
A|-4---------------------------------------------------------------|
E|-----------------------------------------------------------------|
     C#m               G#m

e|-------2--2--2---------------------------------------------------|
B|-----2--2--2--2-----------------2--------------------------------|
G|----2----2--2--2----------------2-------4--------6---------------|
D|---4----------------------------2-------4--------6---------------|
A|----------------------------------------2--------4---------------|
E|-----------------------------------------------------------------|
    F#m                          x7      x3       x3 (quickly)


e|--5----9-----4----12-11-9-7-9-7----------------------------------|
B|--5----10----5-----------------9-7-------------------------------|
G|--6----11----6---------------------------------------------------|
D|--7----11----6---------------------------------------------------|
A|--7----9-----4---------------------------------------------------|
E|--5--------------------------------------------------------------|
    A    F#m   C#m


e|--5----9-----4-----12--11----------------------------------------|
B|--5----10----5-----13--12----------------------------------------|
G|--6----11----6-----14--13----------------------------------------|
D|--7----11----6-----14--13----------------------------------------|
A|--7----9-----4-----12--11----------------------------------------|
E|--5----------------12--11----------------------------------------|
    A   F#m   C#m   [Am  G#m]   [slowly strum through out]


e|--5----9-----4----12-11-9-7-9-7----------------------------------|
B|--5----10----5-----------------9-7-------------------------------|
G|--6----11----6---------------------------------------------------|
D|--7----11----6---------------------------------------------------|
A|--7----9-----4---------------------------------------------------|
E|--5--------------------------------------------------------------|
    A    F#m   C#m


e|--5----9-----4-----12--11----------------------------------------|
B|--5----10----5-----13--12----------------------------------------|
G|--6----11----6-----14--13----------------------------------------|
D|--7----11----6-----14--13----------------------------------------|
A|--7----9-----4-----12--11----------------------------------------|
E|--5----------------12--11----------------------------------------|
    A   F#m   C#m    Am  G#m

e|--5----9-----4~------9-------------------------------------------|
B|--5----10----5~--------9-----------------------------------------|
G|--6----11----6~--------------------------------------------------|
D|--7----11----6~--------------------------------------------------|
A|--7----9-----4~--------------------------------------------------|
E|--5--------------------------------------------------------------|
    A    F#m   C#m



e|----4--4--4---------------4--4--4--------------------------------|
B|-----5--5--5-------------4-4--4--4-------------------------------|
G|---6--6--6--6-----------4---4--4--4------------------------------|
D|--6--------------------6-----------------------------------------|
A|-4---------------------------------------------------------------|
E|-----------------------------------------------------------------|
     C#m               G#m


e|-------2--2--2----------------------4----------------------------|
B|-----2--2--2--2-------------------5---5--4---4-4-----------------|
G|----2----2--2--2-----------------6----------6-6------------------|
D|---4----------------------------6--------------------------------|
A|-----------------------------------------------------------------|
E|-----------------------------------------------------------------|
   F#m                          C#m


e|----4--4--4---------------4--4--4--------------------------------|
B|-----5--5--5-------------4-4--4--4-------------------------------|
G|---6--6--6--6-----------4---4--4--4------------------------------|
D|--6--------------------6-----------------------------------------|
A|-4---------------------------------------------------------------|
E|-----------------------------------------------------------------|
     C#m               G#m


e|-------2--2--2---------------------------------------------------|
B|-----2--2--2--2-----------------2--------------------------------|
G|----2----2--2--2----------------2-------4--------6---------------|
D|---4----------------------------2-------4--------6---------------|
A|----------------------------------------2--------4---------------|
E|-----------------------------------------------------------------|
    F#m                          x7      x3       x3 (quickly)


e|--5----9-----4----12-11-9-7-9-7----------------------------------|
B|--5----10----5-----------------9-7-------------------------------|
G|--6----11----6---------------------------------------------------|
D|--7----11----6---------------------------------------------------|
A|--7----9-----4---------------------------------------------------|
E|--5--------------------------------------------------------------|
    A    F#m   C#m


e|--5----9-----4-----12--11----------------------------------------|
B|--5----10----5-----13--12----------------------------------------|
G|--6----11----6-----14--13----------------------------------------|
D|--7----11----6-----14--13----------------------------------------|
A|--7----9-----4-----12--11----------------------------------------|
E|--5----------------12--11----------------------------------------|
    A   F#m   C#m    Am  G#m


e|--5----9-----4----12-11-9-7-9-7----------------------------------|
B|--5----10----5-----------------9-7-------------------------------|
G|--6----11----6---------------------------------------------------|
D|--7----11----6---------------------------------------------------|
A|--7----9-----4---------------------------------------------------|
E|--5--------------------------------------------------------------|
    A    F#m   C#m


e|--5----9-----4-----12--------------------------------------------|
B|--5----10----5-----9---------------------------------------------|
G|--6----11----6---------------------------------------------------|
D|--7----11----6---------------------------------------------------|
A|--7----9-----4---------------------------------------------------|
E|--5--------------------------------------------------------------|
    A   F#m   C#m    X8

e|--5----9-----4----12-11-9-7-9-7----------------------------------|
B|--5----10----5-----------------9-7-------------------------------|
G|--6----11----6---------------------------------------------------|
D|--7----11----6---------------------------------------------------|
A|--7----9-----4---------------------------------------------------|
E|--5--------------------------------------------------------------|
    A    F#m   C#m


e|--5----9-----4~------99------------------------------------------|
B|--5----10----5~--------9-----------------------------------------|
G|--6----11----6~--------------------------------------------------|
D|--7----11----6~--------------------------------------------------|
A|--7----9-----4~--------------------------------------------------|
E|--5--------------------------------------------------------------|
    A    F#m   C#m


e|-----------------------------------------------------------------|
B|-----------------------------------------------------------------|
G|--6-6-6-6-6-6--6-----6-6-6-6-4-9-----6-6-6-6-6-6-----------------|
D|--6-6-6-6-6-6--6-----6-6-6-6-4-9-----6-6-6-6-6-6-----------------|
A|--4-4-4-4-4-4--4-----4-4-4-4-2-7-----4-4-4-4-4-4-----------------|
E|-----------------------------------------------------------------|
PM  - - - - - -        - - - - - -     - - - - - - 

e|-----------------------------------------------------------------|
B|-----------------------------------------------------------------|
G|--6-6-6-6-6-6--6---6-6-6-6-6-6-----------------------------------|
D|--6-6-6-6-6-6--6---6-6-6-6-6-6-----------------------------------|
A|--4-4-4-4-4-4--4---4-4-4-4-4-4-----------------------------------|
E|-----------------------------------------------------------------|
PM  - - - - - -      - - - - - -

e|-----------------------------------------------------------------|
B|-----------------------------------------------------------------|
G|-----------------------------------------------------------------|
D|-11--6----4----2----4----6----7----------------------------------|
A|-----------------------------------------------------------------|
E|-----------------------------------------------------------------|

e|-----------------------------------------------------------------|
B|----9~-----[9br]-------------------------------------------------|
G|-----------------------------------------------------------------|
D|-----------------------------------------------------------------|
A|-----------------------------------------------------------------|
E|-----------------------------------------------------------------|
              [pick throughout w/ gradual bend and release]


e|--5----9-----4----12-11-9-7-9-7----------------------------------|
B|--5----10----5-----------------9-7-------------------------------|
G|--6----11----6---------------------------------------------------|
D|--7----11----6---------------------------------------------------|
A|--7----9-----4---------------------------------------------------|
E|--5--------------------------------------------------------------|
    A    F#m   C#m


e|--5----9-----4-----12--11----------------------------------------|
B|--5----10----5-----13--12----------------------------------------|
G|--6----11----6-----14--13----------------------------------------|
D|--7----11----6-----14--13----------------------------------------|
A|--7----9-----4-----12--11----------------------------------------|
E|--5----------------12--11----------------------------------------|
    A   F#m   C#m    Am  G#m


e|--5----9-----4----12-11-9-7-9-7----------------------------------|
B|--5----10----5-----------------9-7-------------------------------|
G|--6----11----6---------------------------------------------------|
D|--7----11----6---------------------------------------------------|
A|--7----9-----4---------------------------------------------------|
E|--5--------------------------------------------------------------|
    A    F#m   C#m


e|--5----9-----4~--------------------------------------------------|
B|--5----10----5~--------------------------------------------------|
G|--6----11----6~--------------------------------------------------|
D|--7----11----6~--------------------------------------------------|
A|--7----9-----4~--------------------------------------------------|
E|--5--------------------------------------------------------------|
    A    F#m   C#m




************************************

| ~   Vibrato
| PM  Palm mute 
| br  Bend release

************************************

            
            
Suggest correction
Creating personal tab
Creating personal tab
You can edit any tab online and save it as your Personal.

You can edit, replace or remove any tab part or add personal notes – all changes will be seen only by you.

Personal tabs can be accessed anytime from any device, even offline.
Learn more »
comments
print report bad tab
2 comments total.
0 reply
VHStudlite 37 Dec 05, 2013 02:19 PM

sounds pretty solid 2 me. but what would i know?

0 reply
camgaertner 58 Feb 16, 2014 01:08 PM

E|-------2--2--2---------------------------------------------------|
B|-----2--2--2--2-----------------2--------------------------------|
G|----2----2--2--2----------------2-------4--------6---------------|
D|---4----------------------------2-------4--------6---------------|
A|----------------------------------------2--------4---------------|
E|-----------------------------------------------------------------|
F#m x7 x3 x3 (quickly)

This part with the strumming before the chorus sounds a little off. I don't know what they're doing, but it sounds more like something like 12 on high E 3 times, then 4 on D twice, then 6 on D twice

guest
You may want to rate the tab now too:
select rating
Wanna post a correction for this tab? Suggest correction