Oops, an error
Loading. Please wait.

Its Just Forever bass

version 1
version 1

Whole song

4,617 views 3 this week
2 commentsread comments
1 2 3 4 5
x 7
add to favorites
×
Save as Personal and add changes to this tab that will be seen only by you. Learn more ›
×
You can save this tab as Personal to edit and correct it or add notes. All changes will be seen only by you. Learn more »
launch autoscroll
font size
0
reset
guitar tuner
edit
Autoscroll
slow
fast
+/-
esc
set tempo
stop
Author
Cage The Elephant- It’s Just Forever  (Tabbed by: rahkshinaw)
Wait 0:03

Intro                    (5x)
G|--------7------------7----|
D|-----5h7-97-------5h7-97--|  Play very swiftly
A|-----------9------------9-|
E|-5-5---------5-5----------|

Versus     (4x)        
G|------------|
D|------------|   
A|---77---77--|
E|-5----5---00|

Pre-Chorus               (2x)
G|--------7------------7----|
D|-----5h7-97-------5h7-97--|  Play very swiftly
A|-----------9------------9-|
E|-5-5---------5-5----------|

Versus     (4x)        
G|------------| 
D|------------| 
A|---77---77--| 
E|-5----5---00|

Pre-Chorus               (4x)
G|--------7------------7----|
D|-----5h7-97-------5h7-97--|  Play very swiftly
A|-----------9------------9-|
E|-5-5---------5-5----------|

G|-------------------|
D|-------------------|
A|-------------------|
E|-8-7--8-7--8-7--8-7|

Chorus                      (2x)
G|-----------------------------|
D|-----------------------------|
A|---------------888888-777777-|
E|-777777-888888---------------|
Then…
G|-----------------------------|     |---------------|
D|----------------------9------|     |---------------|
A|---------------888888--8-77--|     |-666555--------|
E|-777777-888888---------------|     |--------777666-|


Post Chorus
G|-------------------------|
D|-------------------------|
A|-------------------------|
E|-8-7--8-7--8-7--8-7--8--7|

Versus     (4x)        
G|------------|
D|------------|   
A|---77---77--|
E|-5----5---00|

Pre-Chorus               (4x)
G|--------7------------7----|
D|-----5h7-97-------5h7-97--|  Play very swiftly
A|-----------9------------9-|
E|-5-5---------5-5----------|

G|-------------------|
D|-------------------|
A|-------------------|
E|-8-7--8-7--8-7--8-7|

Bridge
G|------------------------|
D|------------------------|
A|------------------------|
E|-5-5-5-5-5-5-5-5-5-5-5--|

                    (2x)
G|---------------------|
D|---------------------|
A|-------543-------543-|
E|-5-5-5-----5-5-5-----|

G|----------|
D|----------|     Let ring out
A|--------3-|
E|-5-5-5-4--|

Bass Solo!
G|-------------------------------------------------------|
D|-------------------------------------------------------|
A|-654-0-654-0-345654-654-6540-6540-6540-23—654-6540-234-|
E|-------------------------------------------------------|

Chorus                      (3x)
G|-----------------------------|
D|-----------------------------|
A|---------------888888-777777-|
E|-777777-888888---------------|
Then…
G|-----------------------------|     |---------------|
D|----------------------9------|     |---------------|
A|---------------888888--8-77--|     |-666555--------|
E|-777777-888888---------------|     |--------777666-|

G|-------------------------|
D|-------------------------|
A|-------------------------|
E|-8-7--8-7--8-7--8-7--8--7|

Outro                       (2x)
G|-----------------------------|
D|-----------------------------|
A|--------7-------7-------7-8-7|
E|-5--5-78--0-5--7--0-5-78-----|

            
            
Suggest correction
Creating personal tab
Creating personal tab
You can edit any tab online and save it as your Personal.

You can edit, replace or remove any tab part or add personal notes – all changes will be seen only by you.

Personal tabs can be accessed anytime from any device, even offline.
Learn more »
comments
print report bad tab
2 comments total.
0 reply
Rahkshinaw 489 Oct 17, 2013 08:04 PM

Please rate! I'd like to know how well you guys think I did.

0 reply
robotfrom94 314 Jun 04, 2014 05:14 AM

Sounds pretty much there, although it seems to me like the chorus is:

G|-----------------------------|
D|-----------------------------|
A|---------------888888-777777-|
E|-555555-888888---------------|

guest
You may want to rate the tab now too:
select rating
Wanna post a correction for this tab? Suggest correction