Oops, an error
Loading. Please wait.

Japanese Buffalo bass

22 views 1 this week
no commentswrite comment
1 2 3 4 5
3 more votes to show rating
add to favorites
×
Save as Personal and add changes to this tab that will be seen only by you. Learn more ›
×
You can save this tab as Personal to edit and correct it or add notes. All changes will be seen only by you. Learn more »
launch autoscroll
font size
0
reset
guitar tuner
edit
Autoscroll
slow
fast
+/-
esc
set tempo
stop
Artist: Cage the elephant
Song: Japanese Buffalo
Album: Thank you, happy birthday (2006)

You'll need to use a pick for this one and strum as fast as you can.
Timing on tab is not great but take a listen and you'll figure it out.

Tabbed by Leo Chiurco

[Verse 1] "Alright, ok ...."
G|---------------------------------|---------------------------------|
D|---------------------------------|---------------------------------|    |
A|-3---3-3---3-3-3-0---0-0---0-0-0-|-3---3-3---3-3-3-0---0-0-5---7---|    |
E|---------------------------------|---------------------------------|    |
   1 + + + 2 + + + 3 + + + 4 + + +   1 + + + 2 + + + 3 + + + 4 + + +      |
                                                                          | (x2)
G|---------------------------------|---------------------------------|    |
D|---------------------------------|---------------------------------|    |
A|-3---3-3---3-3-3-0---0-0---0-0-0-|---------------------------------|    |
E|---------------------------------|-1---1---1---1---1---1-1---1-1-1-|
   1 + + + 2 + + + 3 + + + 4 + + +   1 + + + 2 + + + 3 + + + 4 + + +

[Chorus 1] "Shame!"
G|---------------------------------|---------------------------------|
D|---------------------------------|---------------------------------|    
A|---------------------------------|---------------------------------|    
E|-8---7---5\--1-------------------|-8---7---5\--1-------------------|    
   1 + + + 2 + + + 3 + + + 4 + + +   1 + + + 2 + + + 3 + + + 4 + + + 

G|---------------------------------|---------------------------------|
D|---------------------------------|---------------------------------|    
A|---------------------------------|-------------------------7---5---|    
E|-8---7---5\--1-------------------|-1---1---1---1---3---3-----------|    
   1 + + + 2 + + + 3 + + + 4 + + +   1 + + + 2 + + + 3 + + + 4 + + + 

G|---------------------------------|---------------------------------|
D|---------------------------------|---------------------------------|    
A|---------------------------------|---------------------------------|    
E|-8---7---5-----------------------|-8---7---5-----------------------|    
   1 + + + 2 + + + 3 + + + 4 + + +   1 + + + 2 + + + 3 + + + 4 + + + 

G|---------------------------------|---------------------------------|
D|---------------------------------|---------------------------------|    
A|---------------------------------|-------------------------7---5---|    
E|-8---7---5-----------------------|-1---1---1---1---3---3-----------|    
   1 + + + 2 + + + 3 + + + 4 + + +   1 + + + 2 + + + 3 + + + 4 + + + 


[Verse 2] "Alright, ok ...."
G|---------------------------------|---------------------------------|
D|---------------------------------|---------------------------------|    |
A|-3---3-3---3-3-3-0---0-0---0-0-0-|-3---3-3---3-3-3-0---0-0-5---7---|    |
E|---------------------------------|---------------------------------|    |
   1 + + + 2 + + + 3 + + + 4 + + +   1 + + + 2 + + + 3 + + + 4 + + +      |
                                                                          | (x3)
G|---------------------------------|---------------------------------|    |
D|---------------------------------|---------------------------------|    |
A|-3---3-3---3-3-3-0---0-0---0-0-0-|---------------------------------|    |
E|---------------------------------|-1---1---1---1---1---1-1---1-1-1-|
   1 + + + 2 + + + 3 + + + 4 + + +   1 + + + 2 + + + 3 + + + 4 + + +

[Chorus 2] "Shame!"
G|---------------------------------|---------------------------------|
D|---------------------------------|---------------------------------|    
A|---------------------------------|---------------------------------|    
E|-8---7---5\--1-------------------|-8---7---5\--1-------------------|    
   1 + + + 2 + + + 3 + + + 4 + + +   1 + + + 2 + + + 3 + + + 4 + + + 

G|---------------------------------|---------------------------------|
D|---------------------------------|---------------------------------|    
A|---------------------------------|-------------------------7---5---|    
E|-8---7---5\--1-------------------|-1---1---1---1---3---3-----------|    
   1 + + + 2 + + + 3 + + + 4 + + +   1 + + + 2 + + + 3 + + + 4 + + + 

G|---------------------------------|---------------------------------|
D|---------------------------------|---------------------------------|    
A|---------------------------------|---------------------------------|    
E|-8---7---5-----------------------|-8---7---5-----------------------|    
   1 + + + 2 + + + 3 + + + 4 + + +   1 + + + 2 + + + 3 + + + 4 + + + 

                                    [Slow down tempo]
G|---------------------------------|---------------------------------|
D|---------------------------------|---------------------------------|    
A|---------------------------------|---------------------------------|    
E|-8---7---5-----------------------|-1---1---1---1---3---3---3---3---|    
   1 + + + 2 + + + 3 + + + 4 + + +   1 + + + 2 + + + 3 + + + 4 + + + 

[Bridge 1] "Run it over my skin .."
G|---------------------------------|---------------------------------|
D|---------------------------------|-----------3---------------------|    
A|-3-----------3-2-0---------0-2-3-|-----------------------------0-2-| (x4)   
E|---------------------------------|-1-------1---1-2-3---------------|    
   1 + + + 2 + + + 3 + + + 4 + + +   1 + + + 2 + + + 3 + + + 4 + + + 

[Chorus 3 modified] "It's a shame!"
G|---------------------------------|---------------------------------|
D|---------------------------------|---------------------------------|    
A|---------------------------------|---------------------------------|    
E|-8---8-8-8---7-5\1---------------|-8---8-8-8---7-5\1---------------|    
   1 + + + 2 + + + 3 + + + 4 + + +   1 + + + 2 + + + 3 + + + 4 + + + 

G|---------------------------------|---------------------------------|
D|---------------------------------|---------------------------------|    
A|---------------------------------|---------------------------------|    
E|-8---8-8-8---7-5\1---------------|-1-1-1---1-1---1-3-3---3-3-3---3-|    
   1 + + + 2 + + + 3 + + + 4 + + +   1 + + + 2 + + + 3 + + + 4 + + + 

G|---------------------------------|-------------------------------------------------|
D|---------------------------------|-------------------------------------------------|    
A|---------------------------5---7-|-------------------------------------------------|    
E|-1-1-1---1-1---1-3-3---3-3-------|-8-8---8--8--8-8---8--8--8-8----8--8--8-8---8--8-|    
   1 + + + 2 + + + 3 + + + 4 + + +   1  +  +  +  2  +  +  +  3  +   +  +  4  +  +  + 

G|-------------------------------------------------|-------------------------------------------------|
D|-------------------------------------------------|-------------------------------------------------| 
A|--------------------------------------------5--7-|-------------------------------------------------|    
E|-1-1---1--1--1-1---1--1--3-3----3--3--3-3--------|-8-8---8--8--8-8---8--8--8-8----8--8--8-8---8--8-|    
   1  +  +  +  2  +  +  +  3  +   +  +  4  +  +  +   1  +  +  +  2  +  +  +  3  +   +  +  4  +  +  + 

G|-------------------------------------------------|-------------------------------------------------|
D|-------------------------------------------------|-------------------------------------------------| 
A|--------------------------------------------5--7-|-------------------------------------------------|    
E|-1-1---1--1--1-1---1--1--3-3----3--3--3-3--------|-8-8---8--8--8-8---8--8--8-8----8--8--8-8---8--8-|    
   1  +  +  +  2  +  +  +  3  +   +  +  4  +  +  +   1  +  +  +  2  +  +  +  3  +   +  +  4  +  +  + 

G|-------------------------------------------------|-------------------------------------------------|
D|-------------------------------------------------|-------------------------------------------------| 
A|--------------------------------------------5--7-|-------------------------------------------------|    
E|-1-1---1--1--1-1---1--1--3-3----3--3--3-3--------|/8-----8--8-/8-----8--8-/8------8--8-/8-----8--8-|    
   1  +  +  +  2  +  +  +  3  +   +  +  4  +  +  +   1  +  +  +  2  +  +  +  3  +   +  +  4  +  +  + 

G|-------------------------------------------------|-------------------------------------------------|
D|-------------------------------------------------|-------------------------------------------------| 
A|--------------------------------------------5--7-|-------------------------------------------------|    
E|/1-----1--1-/1-----1--1-/3------3--3-/3----------|/8-----8--8-/8-----8--8-/8------8--8-/8-----8--8-|    
   1  +  +  +  2  +  +  +  3  +   +  +  4  +  +  +   1  +  +  +  2  +  +  +  3  +   +  +  4  +  +  + 

G|-------------------------------------------------|-------------------------------------------------|
D|-------------------------------------------------|-------------------------------------------------| 
A|--------------------------------------------5--7-|-------------------------------------------------|    
E|/1-----1--1-/1-----1--1-/3------3--3-/3----------|-0-----------------------------------------------|    
   1  +  +  +  2  +  +  +  3  +   +  +  4  +  +  +   1  +  +  +  2  +  +  +  3  +   +  +  4  +  +  + 


**********************************

 | / Slide up
 | \ Slide down

**********************************

            
            
Suggest correction
Creating personal tab
Creating personal tab
You can edit any tab online and save it as your Personal.

You can edit, replace or remove any tab part or add personal notes – all changes will be seen only by you.

Personal tabs can be accessed anytime from any device, even offline.
Learn more »
Give kudos to tab author, rate the tab!
1 2 3 4 5
comments
print report bad tab
guest
You may want to rate the tab now too:
select rating
Wanna post a correction for this tab? Suggest correction