Oops, an error
Loading. Please wait.

Trouble tab

version 1
version 1

Whole song

  • This tab is a work in progress but mostly correct.

Interactive

50,452 views 624 this week
2 commentsread comments
1 2 3 4 5
x 44
add to favorites
×
Save as Personal and add changes to this tab that will be seen only by you. Learn more ›
×
You can save this tab as Personal to edit and correct it or add notes. All changes will be seen only by you. Learn more »
launch autoscroll
font size
0
reset
how to read this tab
guitar tuner
edit
Autoscroll
slow
fast
+/-
esc
set tempo
stop
Author
Difficulty
intermediate
-------------------------------------------------------------------------------
                             Trouble - cage the elephant
-------------------------------------------------------------------------------
 


e|----------------------------------------8--------7------8-------8---10--|
B|-----5--------9--------10---55555555-----8-----9--9-9-----10----10--10--|
G|---0---0----9--9-9---9----9-75757575--9----9-9-----9--9------9--10--10--|
D|-2--------6-----6--7----------------------------------------------------|
A|------------------------------------------------------------------------|
E|------------------------------------------------------------------------|
"ooooo, ooo"
e|---8-----------------8--------8--------8-----------------8--------8--------|
B|-----8-------12--------8--------8--------8-------12--------8--------8------|
G|-9-----9---9---9-9-9-----9-10-----10-9-----9---9---9-9-9-----9-10-----10---|
D|---------9------9----------------------------9------9----------------------|
A|---------------------------------------------------------------------------|
E|---------------------------------------------------------------------------|

e|----13-------------12----------12-------------12----------12---------------|
B|-------13-------12---12--12-------13----13-------13----------13------------|
G|-12-------12-13--------13---14-------14----14-------14-12-------12---------|
D|---------------------------------------------------------------------------|
A|---------------------------------------------------------------------------|
E|---------------------------------------------------------------------------|

e|-------12----------12---------------------------------------------------------|
B|----12---12--12----------13----13----13-13~-----------------------------------|
G|-13--------13---14----14----14----14------------------------------------------|
D|------------------------------------------------------------------------------|
A|------------------------------------------------------------------------------|
E|------------------------------------------------------------------------------|
(Palm mute) "we were at the table, by the window in the view.. "
e|---------------------------------------------------------------------------|
B|---------------------------------------------------------------------------|
G|---------------------------------------------------------------------------|
D|--5555--9999------------------5555--9999-----------------------------------|
A|--3333--7777--7777--3333------3333--7777--77773----------------------------|
E|--------------5555--1111-(x2)-------------55551----------------------------|
"got so much to loose, got so much to prove"
e|-----------------------------------------------------------------------------|
B|-----------------------------------------------------------------------------|
G|-----------------------------------------------------------------------------|
D|-----------------------------------------------------------------------------|
A|-0-0----------------0-0------------------------------------------------------|
E|----4321-1234-(x2)-----4321--------------------------------------------------|
                    "trouble on my left, trouble on my right"
e|---8---------7-------------------------------------------------------------|
B|-----8-----9---9-|8---8---9---9---10---10---13---10-------|----------------|
G|-9-----9-9-------|--9---9---9---9----9----9----9----9-(x2)|----------------|
D|---------------------------------------------------------------------------|
A|---------------------------------------------------------------------------|
E|---------------------------------------------------------------------------|

e|----12-------------12----------12------------------------------------------|
B|-------13-------12---12--12-------13----13----13----13----13---------------|
G|-12-------12-13--------13---14-------14----14----14----14----14------------|
D|---------------------------------------------------------------------------|
A|---------------------------------------------------------------------------|
E|---------------------------------------------------------------------------|

e|----12-------------12----------12----------13----------12-------------12---------12---------------------|
B|-------13-------12---12--12-------13----------13----------13-------12---12--12---------13----13----13-13|
G|-12-------12-13--------13---14-------14-14-------14-12-------12-13--------13---14---14----14----14------|
D|--------------------------------------------------------------------------------------------------------|
A|--------------------------------------------------------------------------------------------------------|
E|--------------------------------------------------------------------------------------------------------|
(palm mute) "Will I come to pass or will I pass the test."
e|---------------------------------------------------------------------------|
B|---------------------------------------------------------------------------|
G|---------------------------------------------------------------------------|
D|-5555--9999------------------5555--9999------------------------------------|
A|-3333--7777--7777--3333------3333--7777--77773-----------------------------|
E|-------------5555--1111-(x2)-------------55551-----------------------------|
 "got so much to loose, got so much to prove"
e|---------------------------------------------------------------------------|
B|---------------------------------------------------------------------------|
G|---------------------------------------------------------------------------|
D|---------------------------------------------------------------------------|
A|-0-0---------------0-0-----------------------------------------------------|
E|----4321-1234 (x2)----4321-------------------------------------------------|
 "trouble on my left, trouble on my right"
e|---8---------7-------------------------------------------------------------|
B|-----8-----9---9-|8---8---9---9---10---10---13---10-------|----------------|
G|-9-----9-9-------|--9---9---9---9----9----9----9----9-(x2)|----------------|
D|---------------------------------------------------------------------------|
A|---------------------------------------------------------------------------|
E|---------------------------------------------------------------------------|

e|----12-------------12----------12------------------------------------------|
B|-------13-------12---12--12-------13----13----13---------------------------|
G|-12-------12-13--------13---14-------14----14----14------------------------|
D|---------------------------------------------------------------------------|
A|---------------------------------------------------------------------------|
E|---------------------------------------------------------------------------|


[Solo]

e|---------------------------------------------------------------------------|
B|---------------------------------------------------------------------------|
G|-----9-7-5-7-5--99-7-5---99-7-5---9-10-9-10-9------------------------------|
D|-5-7-------------------7--------5------------------------------------------|
A|---------------------------------------------------------------------------|
E|---------------------------------------------------------------------------|
"trouble on my left, trouble on my right"
e|---------------------------------------------------------------------------|
B|-8---8---9---9---10---10---13---10-----------------------------------------|
G|---9---9---9---9----9----9----9----9-(x2)----------------------------------|
D|---------------------------------------------------------------------------|
A|---------------------------------------------------------------------------|
E|---------------------------------------------------------------------------|
I said it was love and I did it for life, do do for you"          |"oooo, ooo"
e|----12-------------12----------12-------------------------------|--12-------------12----------12------13---|
B|-------13-------12---12--12-------13----13----13----13----13----|-----13-------12---12--12-------13------13|
G|-12-------12-13--------13---14-------14----14----14----14----14-12------12-13---------13---14-------14-----|
D|----------------------------------------------------------------|------------------------------------------|
A|----------------------------------------------------------------|------------------------------------------|
E|----------------------------------------------------------------|--------(x2)------------------------------|
                                                                   |
e|----12-------------12----------12-------13---------------------------------|
B|-------13-------12---12--12-------13----13---------------------------------|
G|-12-------12-13--------13---14-------14-14---------------------------------|
D|---------------------------------------------------------------------------|
A|---------------------------------------------------------------------------|
E|---------------------------------------------------------------------------|

Am             F
Got so much to lose,
Am             F
Got so much to prove,
Am               F            c
God don't let me lose my mind.
E, Am, F, Fm, C

 

************************************

| ~  Vibrato 

************************************

            
            
Suggest correction
Creating personal tab
Creating personal tab
You can edit any tab online and save it as your Personal.

You can edit, replace or remove any tab part or add personal notes – all changes will be seen only by you.

Personal tabs can be accessed anytime from any device, even offline.
Learn more »
comments
print report bad tab
2 comments total.
+9 reply
PatrixMatrix 725 Jan 20, 2016 09:41 AM

Hey bro, just a little correction. Between the last two chords there's an F minor so the last line should be like this:
E Am F Fm C
But that's just nitpicking, awesome tab :D

0 reply
thegoodguy277 16 6 days ago

There's quite a bit wrong with the intro tab...

guest
You may want to rate the tab now too:
select rating
Wanna post a correction for this tab? Suggest correction