Oops, an error
Loading. Please wait.

Cazaba El Tigre Palomas tab

by Caito
38 views 1 this week
no commentswrite comment
1 2 3 4 5
3 more votes to show rating
add to favorites
×
Save as Personal and add changes to this tab that will be seen only by you. Learn more ›
×
You can save this tab as Personal to edit and correct it or add notes. All changes will be seen only by you. Learn more »
launch autoscroll
font size
0
reset
how to read this tab
guitar tuner
edit
Autoscroll
slow
fast
+/-
esc
set tempo
stop
      Em            A7            Em           A7                 
E----0---------------------------------------------------------6
A------------------0-------------0-------------0---------------5
D--------------------------------------------------------------4
G------0---0---0-----0---0---0-----0---0---0-----0---0---0-----3
B--------0---0-----2---2---2---------0---0-----2---2---2-------2
E----0---------------------------0-----------------------------1

      D                              Dmaj7             D          
E--------------------------------------------------------------6
A--------------------------------------------------------------5
D----0--------------0----------------0----------------0--------4
G------2---2---2-------2----2---2-------2----2---2-------2-----3
B--------3---3----------------3----------------2---------------2
E----2--------------------2----------2-----2----------------2--1

      Em            A7            Em           A7                 
E----0---------------------------------------------------------6
A------------------0-------------0-------------0---------------5
D--------------------------------------------------------------4
G------0---0---0-----0---0---0-----0---0---0-----0---0---0-----3
B--------0---0-----2---2---2---------0---0-----2---2---2-------2
E----0---------------------------0-----------------------------1
           No se como poder decirte hoy

      D                              Dmaj7             D          
E--------------------------------------------------------------6
A--------------------------------------------------------------5
D----0--------------0----------------0----------------0--------4
G------2---2---2-------2----2---2-------2----2---2-------2-----3
B--------3---3----------------3----------------2---------------2
E----2--------------------2----------2-----2----------------2--1
            que me encuentro sólo

      Em            A7            Em           A7                 
E----0---------------------------------------------------------6
A------------------0-------------0-------------0---------------5
D--------------------------------------------------------------4
G------0---0---0-----0---0---0-----0---0---0-----0---0---0-----3
B--------0---0-----2---2---2---------0---0-----2---2---2-------2
E----0---------------------------0-----------------------------1
            que me encuentro sólo

      D                              Dmaj7             D          
E--------------------------------------------------------------6
A--------------------------------------------------------------5
D----0--------------0----------------0----------------0--------4
G------2---2---2-------2----2---2-------2----2---2-------2-----3
B--------3---3----------------3----------------2---------------2
E----2--------------------2----------2-----2----------------2--1
            y que sólo pienso en ti.

      Em            A7            Em           A7                 
E----0---------------------------------------------------------6
A------------------0-------------0-------------0---------------5
D--------------------------------------------------------------4
G------0---0---0-----0---0---0-----0---0---0-----0---0---0-----3
B--------0---0-----2---2---2---------0---0-----2---2---2-------2
E----0---------------------------0-----------------------------1

      Em            A7            Em           A7                 
E----0---------------------------------------------------------6
A------------------0-------------0-------------0---------------5
D--------------------------------------------------------------4
G------0---0---0-----0---0---0-----0---0---0-----0---0---0-----3
B--------0---0-----2---2---2---------0---0-----2---2---2-------2
E----0---------------------------0-----------------------------1
            Cuando, cuando yo andaba por el cielo

      D                              Dmaj7             D          
E--------------------------------------------------------------6
A--------------------------------------------------------------5
D----0--------------0----------------0----------------0--------4
G------2---2---2-------2----2---2-------2----2---2-------2-----3
B--------3---3----------------3----------------2---------------2
E----2--------------------2----------2-----2----------------2--1
            recuerdo que cazaba como el tigre a las palomas

      Em            A7            Em           A7                 
E----0---------------------------------------------------------6
A------------------0-------------0-------------0---------------5
D--------------------------------------------------------------4
G------0---0---0-----0---0---0-----0---0---0-----0---0---0-----3
B--------0---0-----2---2---2---------0---0-----2---2---2-------2
E----0---------------------------0-----------------------------1
            recuerdo que cazaba como el tigre a las palomas

      D                              Dmaj7             D          
E--------------------------------------------------------------6
A--------------------------------------------------------------5
D----0--------------0----------------0----------------0--------4
G------2---2---2-------2----2---2-------2----2---2-------2-----3
B--------3---3----------------3----------------2---------------2
E----2--------------------2----------2-----2----------------2--1
           que pensaba en ti como pienso hoy

      Em            A7            Em           A7                 
E----0---------------------------------------------------------6
A------------------0-------------0-------------0---------------5
D--------------------------------------------------------------4
G------0---0---0-----0---0---0-----0---0---0-----0---0---0-----3
B--------0---0-----2---2---2---------0---0-----2---2---2-------2
E----0---------------------------0-----------------------------1
             como recuerdo hoy que  puedo decirte que

      D                              Dmaj7             D          
E--------------------------------------------------------------6
A--------------------------------------------------------------5
D----0--------------0----------------0----------------0--------4
G------2---2---2-------2----2---2-------2----2---2-------2-----3
B--------3---3----------------3----------------2---------------2
E----2--------------------2----------2-----2----------------2--1
            te quiero, te extraño, te amo.

      Em            A7            Em           A7                 
E----0---------------------------------------------------------6
A------------------0-------------0-------------0---------------5
D--------------------------------------------------------------4
G------0---0---0-----0---0---0-----0---0---0-----0---0---0-----3
B--------0---0-----2---2---2---------0---0-----2---2---2-------2
E----0---------------------------0-----------------------------1
            Cazaba el tigre a las palomas

      D                              Dmaj7             D          
E--------------------------------------------------------------6
A--------------------------------------------------------------5
D----0--------------0----------------0----------------0--------4
G------2---2---2-------2----2---2-------2----2---2-------2-----3
B--------3---3----------------3----------------2---------------2
E----2--------------------2----------2-----2----------------2--1
            me recuerda lo que  ayer yo hice

      Em            A7            Em           A7                 
E----0---------------------------------------------------------6
A------------------0-------------0-------------0---------------5
D--------------------------------------------------------------4
G------0---0---0-----0---0---0-----0---0---0-----0---0---0-----3
B--------0---0-----2---2---2---------0---0-----2---2---2-------2
E----0---------------------------0-----------------------------1
            me recuerda que te quiero como nunca imaginé.

      D                              D

            
            
Suggest correction
Creating personal tab
Creating personal tab
You can edit any tab online and save it as your Personal.

You can edit, replace or remove any tab part or add personal notes – all changes will be seen only by you.

Personal tabs can be accessed anytime from any device, even offline.
Learn more »
Give kudos to tab author, rate the tab!
1 2 3 4 5
comments
print report bad tab
guest
Wanna post a correction for this tab? Suggest correction