Oops, an error
Loading. Please wait.

Cuentame Una Tonteria tab

by Caito
34 views 1 this week
no commentswrite comment
1 2 3 4 5
3 more votes to show rating
add to favorites
×
Save as Personal and add changes to this tab that will be seen only by you. Learn more ›
×
You can save this tab as Personal to edit and correct it or add notes. All changes will be seen only by you. Learn more »
launch autoscroll
font size
0
reset
how to read this tab
guitar tuner
edit
Autoscroll
slow
fast
+/-
esc
set tempo
stop
Ríete de la noche, del día, de la luna, 
ríete de este torpe muchacho que te quiere, 
niégame el pan, el aire, la luz, la primavera, 
pero tu risa nunca, porque me moriría.
Con todo mi amor para ti Corina


Intro

  F#m                 F#m                  E                 E                 
E|---2------2-------2-----2------2------2----0-----0-----0----0------0-----0--
B|-----2-------2------------2------2-----------0-----0----------0------0------
G|-------2-------2------------2------2-----------1-----1----------1------1----
d|----------------------------------------------------------------------------
a|----------------------------------------------------------------------------
e|-2-------------------2-------------------0-----------------0----------------

  F#m               A                 E
E|---2-----2-----2-----0-----0-----0-----0-----0-----0-------
B|-----2-----2-----------2-----2-----------0-----0-----------
G|-------2-----2-----------2-----2-----------1-----1---------
d|------------------2----------------------------------------
a|------------------------------------2----------------------
e|-2---------------------------------------------------------

   A        E        F#m        F#m          F#m
E|-------------------------------2---------------------------
B|---2---2-----0---0-----2---2---2---------------------------
G|-----2---------1---------2-----2---------------------------
d|-------------------------------4---2/0---------------------
a|-0--------2--------------------4--------2/0----------------
e|--------------------2----------2------------2--------------

...................................................
F#m                        E
   Di que el cielo tiene granos
F#m                       A
   y que afuera hace mal día
A                          E
   cuentame el chiste del gato,
E                   F#m
   dame aquella medicina
F#m                   E
   cuentame una tonteria
E                      F#m
   cuando llegue la agonia
...................................................
   que no me pongan coronas, 
   por que me da mucha risa
   me ha subidido  algo la fiebre
   quiero un vaso de agua fria
   cuentame una tonteria
   cuando llegue la agonia.
...................................................
   Hablame de cocodrilos
   de profetas y de orgias
   abre entera la ventana
   que me quema la saliva
   cuentame una tonteria
   cuando llegue la agonia
...................................................
   no te calles te suplico
   que esta muerte tiene prisa
   di que todos estan locos
   ya me estas haciendo cosquillas
   cuentame una tonteria
   cuando llegue la agonia

(se repiten las pisadas en toda  la canción)

            
            
Suggest correction
Creating personal tab
Creating personal tab
You can edit any tab online and save it as your Personal.

You can edit, replace or remove any tab part or add personal notes – all changes will be seen only by you.

Personal tabs can be accessed anytime from any device, even offline.
Learn more »
Give kudos to tab author, rate the tab!
1 2 3 4 5
comments
print report bad tab
guest
Wanna post a correction for this tab? Suggest correction