Oops, an error
Loading. Please wait.

The Next Untouchable bass

version 2
version 2

Whole song

166 views 1 this week
1 commentread comment
1 2 3 4 5
2 more votes to show rating
add to favorites
×
Save as Personal and add changes to this tab that will be seen only by you. Learn more ›
×
You can save this tab as Personal to edit and correct it or add notes. All changes will be seen only by you. Learn more »
launch autoscroll
font size
0
reset
guitar tuner
edit
Autoscroll
slow
fast
+/-
esc
set tempo
stop
Difficulty
intermediate
I realized the last tab I uploaded was wrong, so I decided to rework since I'm probably 
the only person here who even tabs this band out. Rhythm not tabbed.

:10
B                     G
G-------------------------------------------------|
D---------------------------5-554-------55-4------|
A-------------------5-----------------------5-----|
E-7-77-57-77-57-77----3-33--------3-33-------5----|

:22
B                              G
G------------------------------------------------------------|
D---------------------------7--5-55--5-554-------55-4--------|
A-------------------55-7-9----------------------------5------|
E-7-77-57-77-57-77--------------------------3-33--------5----|

:35

G------------------------------------------------------|
D------------------------------------------------------|
A------------------5/14-14-14-14-----------------------|
E-7-77-57-77-57-77-------------------------------------|

:40

G----------------------------------|
D----------5-554-------55-4--------|
A---------------------------5------|
E-----3-33--------3-33--------5----|

:58

G----------------------------------------------|
D---------------------------------12-----------|
A---5-5-5-5-7-7-7-7-9-9-9-9/12h14----14--------|
E----------------------------------------------|

1:22

                  I can't walk away                All I can do is say
G------------------------------------------------------------------------|
D------------------------------------------------------------------------|
A--2-2-2-2-2-0-2---------------------------------------------------------|
E------------------------------------3-3-3-3-3-0-3-----------------------|

                Better luck next time               The next untouch -
G----------------------------------------------------------------------|
D----------------------------------------------------------------------|
A--2-2-2-2-2-0-2-------------------------------------------------------|
E-------------------------------------3-3-3-3-3-0-3--------------------|

                 The next untouch -
G--------------------------------------------------------|
D--------------------------------------------------------|
A--5-5-5-5-5-0-5-----------------------------------------|
E----------------------------------3-3-3-3-3-0-3---------|

                 The next untouch -
G--------------------------------------------------------|
D--------------------------------------------------------|
A--5-5-5-5-5-0-5-----------------------------------------|
E----------------------------------3-3-3-3-5-5-5---------|



G---------------------------------------------------------------------------|
D---------------------------------------------------------------------------|
A-------------5-7-9-9-9-9-9h10-10-9-9---------------5-7-9-9-9-9-9h10-10-9-9-|
E-7-7-7-7-7-7-------------------------5-7-7-7-7-7-7-------------------------|


1:53

G-------------------------------------------------------|
D-------------------------------------------------------|
A----5---5-7---7-9---9-10---10-9-9-9-9-9h10-10-9-9------|
E--7----------------------------------------------------|


2:37

G-------------------------------------------------------------------|
D------------------5-5-5-5-5-5-5-5-----------------5-5-4-4----------|
A----------------------------------------------------------7-7-5-5--|
E-3-3-3-3-3-3-3-3------------------3-3-3-3-3-3-3-3------------------|

            
            
Suggest correction
Creating personal tab
Creating personal tab
You can edit any tab online and save it as your Personal.

You can edit, replace or remove any tab part or add personal notes – all changes will be seen only by you.

Personal tabs can be accessed anytime from any device, even offline.
Learn more »
Give kudos to tab author, rate the tab!
1 2 3 4 5
comments
print report bad tab
1 comment total.
0 reply
artome 10 Jul 26, 2013 01:30 AM

cheers for your work buddy!

guest
Wanna post a correction for this tab? Suggest correction