Oops, an error
Loading. Please wait.
We have an official Friend Is A Four Letter Word tab made by UG professional guitarists. Check out the tab »
×
by CAKE
57,192 views 90 this week
1 commentread comment
1 2 3 4 5
x 15
add to favorites
×
Save as Personal and add changes to this tab that will be seen only by you. Learn more ›
×
You can save this tab as Personal to edit and correct it or add notes. All changes will be seen only by you. Learn more »
launch autoscroll
font size
0
reset
how to read this tab
guitar tuner
edit
Autoscroll
slow
fast
+/-
esc
set tempo
stop
"Friend is a Four Letter Word"
By: Cake
Off "Fashion Nugget"

[Part 1 Intro and Verse]
     Play Clean and Slow
     Am                      C                       F
e|---------------0-----------------------0-----------------------1-----------|
B|------------1-----1-----------------1-----1-----------------1-----1--------|
G|---------2--------------2--------0--------------0--------2--------------2--|
D|------2--------------2--------2--------------2--------3--------------3-----|
A|---0-----------------------3-----------------------------------------------|
E|---------------------------------------------------1-----------------------|

      D7
e|-------------2-------------------------------------------------------------|
B|----------1-----1----------------------------------------------------------|
G|-------2--------------2----------------------------------------------------|
D|----0--------------0-------------------------------------------------------|
A|-0-------------------------------------------------------------------------|
E|---------------------------------------------------------------------------|

[Part 2]
    This part comes directly after the verse
    Play 4 times a little distorted
e|--5--5-5--x-x-----x------x-x--3-x--1--1-1-x-x-1-1--1--1--1-----------------|
B|--5--5-5--x-x--7--x--5-5-x-x--3-x--1--1-1-x-x-1-1--1--1--1-----------------|
G|--6--6-6--x-x--7--x--5-5-x-x--4-x--2--2-2-x-x-2-2--2--2--2-----------------|
D|--7--7-7--x-x--7--x--5-5-x-x--5-x--3--3-3-x-x-3-3--3--3--3-----------------|
A|--7--7-7--x-x--5--0--3-3-x-x--5-x--3--3-3-x-x-3-3--3--3--3-----------------|
E|--5--5-5--x-x------------x-x--3-0--1--1-1-x-x-0-0--0--0--0-----------------|
    d  u d  d u  d  u  d u d u  d u  d  u d d u d ud ud ud u

[Part 3]
   Chorus
   Clean and Slow
   Em               Am                Em               Am                G
e|--------------------------0----------------------------------0-------------|
B|---------0--------------1---1---------------0--------------1---1-----------|
G|-------0---0----------2---------2---------0---0----------2---------2-------|
D|-----2---------2----2---------2---------2---------2----2---------2---------|
A|---2---------2----0-------------------2---------2----0---------------0---2-|
E|-0----------------------------------0----------------------------------3---|

                                                      After this pick
                C                G                C                  Am C  F  D7
e|----------------------0---------------------------------0----------0--0--1--2--|
B|-----3--------------1---1--------------3--------------1---1--------1--1--1--1--|
G|---0---0----------0---------2--------0---0----------0---------2----2--0--2--2--|
D|-0---------0----2---------0--------0---------2----2---------0------2--2--3--0--|
A|---------2----3------------------2---------0----3------------------0--3--3--0--|
E|-------------------------------3-----------------------------------------1-----|
then part 2


************************************

| x  Dead note

************************************

            
            
Suggest correction
Creating personal tab
Creating personal tab
You can edit any tab online and save it as your Personal.

You can edit, replace or remove any tab part or add personal notes – all changes will be seen only by you.

Personal tabs can be accessed anytime from any device, even offline.
Learn more »
comments
print report bad tab
1 comment total.
+1 reply
somewhatdamaged 266 Jul 14, 2009 12:06 AM

while the verse arpeggios may be correct, the distorted part on all of these variations is completely off

guest
Wanna post a correction for this tab? Suggest correction