Oops, an error
Loading. Please wait.

Italian Leather Sofa tab

version 1
version 1

Whole song

Interactive

by CAKE
21,368 views 15 this week
2 commentsread comments
1 2 3 4 5
x 6
add to favorites
×
Save as Personal and add changes to this tab that will be seen only by you. Learn more ›
×
You can save this tab as Personal to edit and correct it or add notes. All changes will be seen only by you. Learn more »
launch autoscroll
font size
0
reset
how to read this tab
guitar tuner
edit
Autoscroll
slow
fast
+/-
esc
set tempo
stop
Band - Cake
Song - Italian Leather Sofa, also the Mission Hill Theme
Album - Fashion Nugget

Part A Rhythm
e-----------------------------|
B-----------------------------|
G-5----5---5-55-5----5---5-55-|
D-5----5---5-55-5----5---5-55-|
A-3----3---3-33-0----0---0-00-|
E-----------------------------|

Part B Lead
e-----------------------|
B-----------------------|
G-----------------------|
D------2-3-5------2-3-2-|
A-3-333------3-333------|
E-----------------------|

Part C Lead
e-----------------------------|
B-----------------------------|
G-----------------------------|
D------2-3-5------2-3-2-2---2-|
A-3-333------3-333--------3---|
E-----------------------------|

Part D Rhythm
e-----------------------------|
B-----------------------------|
G-----------------------------|
D-5----5---5-55-5----5---5-55-|
A-5----5---5-55-5----5---5-55-|
E-3----3---3-33-0----0---0-00-|
Right after '...just as long as his ship's coming in...'

Part E Lead
e-----------------------------|
B-----------------------------|
G-----------------------------|
D-----------------------------|
A------2-3-5------2-3-2-2---2-|
E-3-333------3-333--------3---|
Right after '...just as long as his ship's coming in...'

There are two guitars in this song. The rhythm guitar always plays Part A, except when it
doesn't and instead plays Part D. The lead guitar joins in after the first two measures
and plays Part C and when he's singing Part B. During the chorus the guitars move down a
string for the measure, right after '...just as long as his ship's coming in...'

This is my first tab but it's all you need to get started playing this song, I just
haven't figured out the solo or outro parts yet. The Mission Hill theme song uses Part A
for rhythm and Part C and B for lead, but it's all a lot quicker.

the 3 3's in the main riff, part B, C, and E are played very quickly with an up and down-
stroke.

Listen to the songs to get the struming right because it varies.

-Brenden Cline

            
            
Suggest correction
Creating personal tab
Creating personal tab
You can edit any tab online and save it as your Personal.

You can edit, replace or remove any tab part or add personal notes – all changes will be seen only by you.

Personal tabs can be accessed anytime from any device, even offline.
Learn more »
comments
print report bad tab
2 comments total.
0 reply
guitar-man121 10 Jan 23, 2007 02:35 PM

cake= great band
your tab= great tab

-1 reply
Michael Greer 796 Feb 12, 2014 10:30 PM

Good job on the tab.
This is the correct intro...

e-----------------------------|
B-----------------------------|
G-0----0---0-00-0----0---0-00-|
D-5----5---5-55-2----2---2-22-|
A-3----3---3-33-3----3---3-33-|
E-----------------------------|

I'll post a tab with the rest later.

guest
Wanna post a correction for this tab? Suggest correction