Oops, an error
Loading. Please wait.

Love You Madly tab

version 1
version 1

Whole song

Interactive

by CAKE
32,347 views 45 this week
5 commentsread comments
1 2 3 4 5
x 9
add to favorites
×
Save as Personal and add changes to this tab that will be seen only by you. Learn more ›
×
You can save this tab as Personal to edit and correct it or add notes. All changes will be seen only by you. Learn more »
launch autoscroll
font size
0
reset
how to read this tab
guitar tuner
backing track
0:00
0:00
edit
Autoscroll
slow
fast
+/-
esc
set tempo
stop
Author
e|-------------------------|-------------------------|
B|-------------------------|-------------------------|
G|o--9-9------------------o|--9-9--------------------|
D|o--9-9------------------o|--9-9--------------------|
A|---7-7-5------5---5------|--7-7-5------5---5--7----|
E|---0-0------0---0--------|--0-0------0---0---------|

e|-------------------------|-------------------------|
B|-------------------------|-------------------------|
G|o-----------------------o|-------------------------|
D|o-----------------------o|-------------------------|
A|-------------------------|-------------------------|
E|-------------------------|-------------------------

[Part 1]                
e|-------------------------|-------------------------|
B|-------------------------|-------------------------|
G|-------------------------|-------------------------|
D|-------------------------|-------------------------|
A|-7-----7-----5-----------|-------------------------|
E|----7-----7--------------|-0-3-5-7--3-5^--3--------|

e|-------------------------|-------------------------|
B|-------------------------|-------------------------|
G|-------------------------|-------------------------|
D|-------------------------|-------------------------|
A|-------------------------|-------------------------|
E|-------------------------|-------------------------|
                                                  
e|-------------------------|-------------------------|
B|-------------------------|-------------------------|
G|-------------------------|-------------------------|
D|-------------------------|-------------------------|
A|-7-----7-----5-----------|-------------------------|
E|----7-----7--------------|-0-3-5-7--3-5^-----------|

e|-------------------------|-------------------------|
B|-------------------------|-------------------------|
G|-------------------------|-------------------------|
D|-------------------------|-------------------------|
A|-------------------------|-------------------------|
E|-------------------------|-------------------------|

e|-------------------------|-------------------------|
B|-------------------------|-------------------------|
G|-------------------------|-------------------------|
D|-------------------------|-------------------------|
A|-7-----7-----5-----------|-------------------------|
E|----7-----7--------------|-0-3-5-7-3-0-3-5-7-3-----|

e|-------------------------|-------------------------|
B|-----------------7-------|-------------------------|
G|-9-9-9-9-9p7p6h7--9p7h9--|-9p7p6h7-----------------|
D|-------------------------|----------9--------------|
A|-------------------------|-------------------------|
E|-------------------------|-------------------------|
                                                 
e|-------------------------|-------------------------|
B|-------------------------|-------------------------|
G|-------------------------|-------------------------|
D|-------------------------|-------------------------|
A|-------------------------|-------------------------|
E|-0-----------------------|-(0)---------------------|

e|-------------------------|-------------------------|
B|-----------------7-------|-------------------------|
G|-9-9-9-9-9p7p6h7--9p7h9--|-9p7p6h7--9--------------|
D|-------------------------|-------------------------|
A|-------------------------|-------------------------|
E|-------------------------|-------------------------|

[Part 2]
e|-------------------------|-------------------------|
B|-------------------------|-------------------------|
G|-------------------------|-------------------------|
D|-------------------------|-------------------------|
A|-7-----7-----5-----------|-------------------------|
E|----7-----7--------------|-0-3-5-7--3-5^--3--------|

e|-------------------------|-------------------------|
B|-------------------------|-------------------------|
G|-------------------------|-------------------------|
D|-------------------------|-------------------------|
A|-------------------------|-------------------------|
E|-------------------------|-------------------------|

e|-------------------------|-------------------------|
B|-------------------------|-------------------------|
G|-------------------------|-------------------------|
D|-------------------------|-------------------------|
A|-7-----7-----5-----------|-------------------------|
E|----7-----7--------------|-0-3-5-7-3-0-3-5-7-3-----|

e|-------------------------|-------------------------|
B|-------------------------|-------------------------|
G|-------------------------|-------------------------|
D|-------------------------|-------------------------|
A|-------------------------|-------------------------|
E|-------------------------|-------------------------|

[Part 3]
                                                   (x3)
e|-------------------------|-------------------------|
B|-------------------------|-------------------------|
G|-4-4---------6-6---------|-6-6--------/7-7--6------|
D|-6-6---------7-7---------|-7-7--------/9-9--4------|
A|-------------------------|-------------------------|
E|-------------------------|-------------------------|

e|-------------------------|-------------------------|
B|-------------------------|-------------------------|
G|-------------------------|-------------------------|
D|-------------------------|-------------------------|
A|-------------------------|-------------------------|
E|-------------------------|-------------------------|

e|-------------------------|-------------------------|
B|-------------------7-----|-------------------------|
G|-4-4---------4-6/7---7p6-|-6-----------------------|
D|-6-6---------------------|-7-----------------------|
A|-------------------------|-0-----------------------|
E|-------------------------|-------------------------|

e|-------------------------|-------------------------|
B|-------------------------|-------------------------|
G|-------------------------|-------------------------|
D|-------------------------|-------------------------|
A|-------------------------|-------------------------|
E|-------------------------|-------------------------|

[Interlude]
                         (x7)
e|-------------------------|-------------------------|
B|-------------------------|-------------------------|
G|------BASS--SOLO---------|---9---9-9-9---9-9-9-9---|
D|-------------------------|-------------------------|
A|-------------------------|-------------------------|
E|-------------------------|-------------------------|

e|-------------------------|-------------------------|
B|-------------------------|-------------------------|
G|-------------------------|-------------------------|
D|-------------------------|-------------------------|
A|-------------------------|-------------------------|
E|-------------------------|-------------------------|

e|-------------------------|-------------------------|
B|-------------------------|-------------------------|
G|-------------------------|-------------------------|
D|-------------------------|-------------------------|
A|-------------------------|-------------------------|
E|-------------------------|-------------------------|

e|-------------------------|-------------------------|
B|-----------------7-------|-------------------------|
G|-9-9-9-9-9p7p6h7--9p7h9--|-9p7p6h7-----------------|
D|-------------------------|----------9--------------|
A|-------------------------|-------------------------|
E|-------------------------|-------------------------|
                                                
e|-------------------------|-------------------------|
B|-------------------------|-------------------------|
G|-------------------------|-------------------------|
D|-------------------------|-------------------------|
A|-------------------------|-------------------------|
E|-------------------------|-------------------------|

e|-------------------------|-------------------------|
B|-----------------7-------|-------------------------|
G|-9-9-9-9-9p7p6h7--9p7h9--|-9p7p6h7--9--------------|
D|-------------------------|-------------------------|
A|-------------------------|-------------------------|
E|-------------------------|-------------------------|

e|-------------------------|-------------------------|
B|-------------------------|-------------------------|
G|-------------------------|-------------------------|
D|-------------------------|-------------------------|
A|-------------------------|-------------------------|
E|-------------------------|-------------------------|

e|-------------------------|-------------------------|
B|-----------------7-------|-------------------------|
G|-----6---7---9----9p7h9--|-9p7p6h7-----------------|
D|-9-----------------------|----------9--------------|
A|-------------------------|-------------------------|
E|-------------------------|-------------------------|
                                               
e|-------------------------|-------------------------|
B|-------------------------|-------------------------|
G|-------------------------|-------------------------|
D|-------------------------|-------------------------|
A|-------------------------|-------------------------|
E|-------------------------|-------------------------|

e|-------------------------|-------------------------|
B|-----------------7-------|-------------------------|
G|-9-9-9-9-9p7p6h7--9p7h9--|-9p7p6h7--9--------------|
D|-------------------------|-------------------------|
A|-------------------------|-------------------------|
E|-------------------------|-------------------------|



************************************

| h    Hammer-on
| p    Pull-off
| (n)  Ghost note
| /    Slide up
| BASS 
| SOLO 
| ^    
| o    

************************************

            
            
Suggest correction
Creating personal tab
Creating personal tab
You can edit any tab online and save it as your Personal.

You can edit, replace or remove any tab part or add personal notes – all changes will be seen only by you.

Personal tabs can be accessed anytime from any device, even offline.
Learn more »
comments
print report bad tab
5 comments total. Showing first comments.
0 reply
posseypops13 40 Jul 02, 2003 08:00 PM

Correction by JP Dunphy

Yeah... i was reviewing the song adn the tabs i made .... i was wrong at the guitar 1 part for the verses. when you get to the second measure, instead of going from 5 to 7...go to 6
so it looks more like this:
e-|-------------
B-|-------------
G---------------
D-|-------------|----
A-|-7----7---5--|------------
E-|----7---7----|-0-3-5-6--3-5^--3-

Yeah... adn also, instead of bending the 5th fret... just do a little trem, it sounds more like the way Cake does it. if i find any more mistakes or if anyone out there does... jsut fix it! or email me at guitarroxguy3@aol.com

0 reply
posseypops13 40 Jul 02, 2003 08:00 PM

Correction by JP Dunphy

Yeah... i was reviewing the song adn the tabs i made .... i was wrong at the guitar 1 part for the verses. when you get to the second measure, instead of going from 5 to 7...go to 6
so it looks more like this:
e-|-------------
B-|-------------
G---------------
D-|-------------|----
A-|-7----7---5--|------------
E-|----7---7----|-0-3-5-6--3-5^--3-

Yeah... adn also, instead of bending the 5th fret... just do a little trem, it sounds more like the way Cake does it. if i find any more mistakes or if anyone out there does... jsut fix it! or email me at guitarroxguy3@aol.com

-1 reply
fedeallaluce 10 Jan 11, 2006 05:55 AM

I have a question this first part of your tab.

e-|-------------------------|-------------------------|-
B-|-------------------------|-------------------------|-
G-|o--9-9------------------o|--9-9--------------------|-
D-|o--9-9------------------o|--9-9--------------------|-
A-|---7-7-5------5---5------|--7-7-5------5---5--7----|-
E-|---0-0------0---0--------|--0-0------0---0---------|-

Are you sure its not like this instead? It doesn't sound like the note in the song goes that low to me.

e-|-------------------------|
B-|-------------------------|
G-|o--9-9------------------o|
D-|o--9-9------------------o|
A-|---7-7-5-5p0-5-----------|
E-|---0-0-------------------|

Thanks-

guest
You may want to rate the tab now too:
select rating
Wanna post a correction for this tab? Suggest correction