Oops, an error
Loading. Please wait.

Nugget bass

version 2
version 2

Whole song

by CAKE
1,826 views 6 this week
no commentswrite comment
1 2 3 4 5
2 more votes to show rating
add to favorites
×
Save as Personal and add changes to this tab that will be seen only by you. Learn more ›
×
You can save this tab as Personal to edit and correct it or add notes. All changes will be seen only by you. Learn more »
launch autoscroll
font size
0
reset
guitar tuner
edit
Autoscroll
slow
fast
+/-
esc
set tempo
stop
Author
Difficulty
Artist: Cake
Title: Nugget
Album: Fashion Nugget
Tabbed by: Hergiswi

Tuning: Standard (EADG)
Difficulty: 4/10 (Requires fast fingers)

#1
G---------------------------------------------|
D---------------------------------------------|
A---------------------------------------------| (2x)
E--11-16/4------------------------------------|

This comes after the guitar riff.

#2
G---------------------------------------------|
D---------------------------------------------|
A--------2--2--2---------2-4-2-4-6-4-2--------|
E--4-2-4----------4-2-4----------------4-2-4--|

Just work out the spacing between the notes and you're all set.
This is played through pretty much the whole song.

#3
G--7-7-7-7-7-7-7------------------------------|
D------------------3-4-5---7------------------|
A--------------5------------------------------| (8x)
E---------------------------------------------|

Play this after the 3rd verse, where the drums stop playing.
After this part, go back to playing the 2nd riff.

            
            
Suggest correction
Creating personal tab
Creating personal tab
You can edit any tab online and save it as your Personal.

You can edit, replace or remove any tab part or add personal notes – all changes will be seen only by you.

Personal tabs can be accessed anytime from any device, even offline.
Learn more »
Give kudos to tab author, rate the tab!
1 2 3 4 5
comments
print report bad tab
guest
You may want to rate the tab now too:
select rating
Wanna post a correction for this tab? Suggest correction