Oops, an error
Loading. Please wait.

Satan Is My Motor tab

by CAKE
14,815 views 27 this week
2 commentsread comments
1 2 3 4 5
x 12
add to favorites
×
Save as Personal and add changes to this tab that will be seen only by you. Learn more ›
×
You can save this tab as Personal to edit and correct it or add notes. All changes will be seen only by you. Learn more »
launch autoscroll
font size
0
reset
how to read this tab
guitar tuner
edit
Autoscroll
slow
fast
+/-
esc
set tempo
stop
Complete Satan Is My Motor Tab - www.ultimate-guitar.com
Standard Tuning EADGBE
xBLAHMASTERx

Yum, Cake...

|---------------------------------------------------|
|---------------------------------------------------|
|-4-----------4/6---------4------------4----4-------|
|--6--6--6--6-----6--6--6---6--6--6--6---6--7-------|
|---------------------------------------------------|
|---------------------------------------------------|

|------------------------------------------------------|
|------------------------------------------------------|
|------------------------------------------------------|
|-2-2-2/4--2/7--7\6-6\4-4\2----------------------------|
|-0-0------------------------2-2-2/4--2/7--7\5-5\4-4\2-|
|----------------------------0-0-----------------------| x3

|---------------------------|
|---------------------------|
|---------------------------|
|-4-4-4/6--6/9--9\7-7\6-6\4-|
|-2-2-2---------------------|
|---------------------------|

|------------------------------------------------------|
|------------------------------------------------------|
|------------------------------------------------------|
|-2-2-2/4--2/7--7\6-6\4-4\2--2-2-2/4--2/7--7\6-6\4-4\2-|
|-0-0-0----------------------0-0-0---------------------|
|------------------------------------------------------|

|----------------------------------------------------------|
|----------------------------------------------------------|
|-1-1-1--2-2-2--1-1-1-6--4--x--6-6-6--7-7-7--------9--7--6-|
|-2-2-2--4-4-4--2-2-2-7--6--x--7-7-7--9-9-9-9/11--11--9--7-|
|----------------------------------------------------------|
|----------------------------------------------------------| x4

|-----------------------------------|
|-----------------------------------|
|-6-6---4-3-3---4-4---3--2--2--2----|
|-6-6---4-4-4---4-4---3--2--2--2----|
|-4-4---2-1-1---2-2---1--0--0--0----|
|-----------------------------------|

|---------------------------------------------------|
|---------------------------------------------------|
|-4-----------4/6---------4------------4----4-------|
|--6--6--6--6-----6--6--6---6--6--6--6---6--7-------|
|---------------------------------------------------|
|---------------------------------------------------|

|------------------------------------------------------|
|------------------------------------------------------|
|------------------------------------------------------|
|-2-2-2/4--2/7--7\6-6\4-4\2----------------------------|
|-0-0------------------------2-2-2/4--2/7--7\5-5\4-4\2-|
|----------------------------0-0-----------------------| x3

|------------------------------------------------------|
|------------------------------------------------------|
|------------------------------------------------------|
|-4-4-4/6--6/9--9\7-7\6-6\4--2-2-2/4--2/7--7\6-6\4-4\2-|
|-2-2-2----------------------0-0-0---------------------|
|------------------------------------------------------|

|------------------------------------------------------|
|------------------------------------------------------|
|------------------------------------------------------|
|-2-2-2/4--2/7--7\6-6\4-4\2--2-2-2/4--2/7--7\6-6\4-4\2-|
|-0-0-0----------------------0-0-0---------------------|
|------------------------------------------------------|

|----------------------------------------------------------|
|----------------------------------------------------------|
|-1-1-1--2-2-2--1-1-1-6--4--x--6-6-6--7-7-7--------9--7--6-|
|-2-2-2--4-4-4--2-2-2-7--6--x--7-7-7--9-9-9-9/11--11--9--7-|
|----------------------------------------------------------|
|----------------------------------------------------------| x4

|-----------------------------------|
|-----------------------------------|
|-6-6---4-3-3---4-4---3--2--2--2----|
|-6-6---4-4-4---4-4---3--2--2--2----|
|-4-4---2-1-1---2-2---1--0--0--0----|
|-----------------------------------|

|----------------------------------------------------------|
|----------------------------------------------------------|
|-1-1-1--2-2-2--1-1-1-6--4--x--6-6-6--7-7-7--------9--7--6-|
|-2-2-2--4-4-4--2-2-2-7--6--x--7-7-7--9-9-9-9/11--11--9--7-|
|----------------------------------------------------------|
|----------------------------------------------------------| x8

|-----------------------------------|
|-----------------------------------|
|-6-6---4-3-3---4-4---3--2--2--2----|
|-6-6---4-4-4---4-4---3--2--2--2----|
|-4-4---2-1-1---2-2---1--0--0--0----|
|-----------------------------------|

            
            
Suggest correction
Creating personal tab
Creating personal tab
You can edit any tab online and save it as your Personal.

You can edit, replace or remove any tab part or add personal notes – all changes will be seen only by you.

Personal tabs can be accessed anytime from any device, even offline.
Learn more »
comments
print report bad tab
2 comments total.
0 reply
Kabbalah_Jesus 10 May 27, 2007 06:41 PM

chorus and intro part are good, not so sure about the verse

+1 reply
habalushy 1,035 Feb 03, 2008 06:56 PM

its all correct except one thing you forgot
it goes

--4--------4-4/6-----
---6-6-6-6------6-6-6


etc....you forgot the first 4 the second time

guest
Wanna post a correction for this tab? Suggest correction