Oops, an error
Loading. Please wait.
We have an official Short Skirt Long Jacket tab made by UG professional guitarists. Check out the tab »
×
by CAKE
90,920 views 51 this week
5 commentsread comments
1 2 3 4 5
x 34
add to favorites
×
Save as Personal and add changes to this tab that will be seen only by you. Learn more ›
×
You can save this tab as Personal to edit and correct it or add notes. All changes will be seen only by you. Learn more »
launch autoscroll
font size
0
reset
how to read this tab
guitar tuner
backing track
0:00
0:00
edit
Autoscroll
slow
fast
+/-
esc
set tempo
stop
Author
Difficulty
-------------------------------------------------------------------------------
                             SHORT SKIRT, LONG JACKET - Cake
-------------------------------------------------------------------------------
Tabbed by: Nick Dupont (sikk_nick)
Email: sikk_nick@yahoo.com

Tuning: Standard
[E,A,D,G,B,e]


Guitar 1: Lead Guitar
Guitar 2: Horn (arranged for guitar)


 [Horn: Intro]
e|--14----------|
B|--------------|
G|--------------|
D|--------------|
A|--------------|
E|--------------|


Guitar: Main Riff #1

e|-----------------------------------|x5
B|-----------------------------------|
G|-----------------------------------|
D|-----------------------------------|
A|--5----3-5-3-5---3-5-3-0-----------|
E|-------------------------1---3---5-|

e|-----------------------------|x1
B|-----------------------------|
G|-----------------------------|
D|-----------------------------|
A|--5----3------5--------------|
E|-----------------2--3--4--5--|


Guitar: Riff # 2

e|--------3-3--------|x4
B|-7---5--3-3---5--7-|
G|-7---6--4-4---6--7-|
D|-7---7--5-5---7--7-|
A|-5---7--5-5---7--5-|
E|-----5--3-3---5----|            

e|--------3-3---------------|x1
B|-7---5--3-3---------------|
G|-7---6--4-4---------------|
D|-7---7--5-5---------------|
A|-5---7--5-5---------------|
E|-----5--3-3--3--3-2-3-4-5-|


Horn: played over  guitar riff #2

 *on repeat
e|--*-------------------------------||-------------|
B|-(7-7)---7-7-7-5-8-----8-8-8--7---||--(8)--------|
G|-(7-7)---7-7-7-6-7-----7-7-7--7---||--(7)---7----|
D|----------------------------------||--------9----|
A|----------------------------------||-------------|
E|--D-D-----------A----G------------||-------------|
Play first measure twice
 

 Guitar: (when you play this for the second and third time, repeat the second measure) 
e|--------------------||-------------------------------------|x2 (on repeat)
B|--------------------||-------------------------------------|
G|--------------------||-------------------------------------|
D|--------------------||-------------------------------------|
A|--7-----------------||---------4-----5-----6---7---7----7--|
E|--5-5-5----5-5-5----||--5--5-5---5-5---5-5---5---5---5--5--|


 Horn: (played with riff #1 on repeats)
e|-----------------------------|
B|--------------13----12-------|
G|--------14----12----12--14---|
D|--12-------------------------|
A|-----------------------------|
E|-----------------------------|


 [Horn Solo]
e|----------------12---14------------------|
B|-----------15-------------15-------------|
G|-11---14-----------------------14---12---|
D|-----------------------------------------|
A|-----------------------------------------|
E|-----------------------------------------|

e|----------------12---14-15--14-15--14-15--14-15--14-15--|
B|-----------15-------------------------------------------|
G|-11---14------------------------------------------------|
D|--------------------------------------------------------|
A|--------------------------------------------------------|
E|--------------------------------------------------------|

e|--14-15--14-15--14-15--14-15--14-15--15--14-------------|
B|--------------------------------------------------------|
G|--------------------------------------------------------|
D|--------------------------------------------------------|
A|--------------------------------------------------------|
E|--------------------------------------------------------|


 Guitar: Rhythm for Horn solo
e|-------------------|x5
B|-------------------|
G|-7---------------7-|
D|-7---7--5-5---7--7-|
A|-5---7--5-5---7--5-|
E|-----5--3-3---5----|            



 [Horn] play over guitar riff #2
e|--14--14-12---15--15--15-14--|--14--14--14-12---15--15--15-14--|3x
B|-----------------------------|---------------------------------|
G|-----------------------------|---------------------------------|
D|-----------------------------|---------------------------------|
A|-----------------------------|---------------------------------|
E|-----------------------------|---------------------------------|

e|--14--14-12---15--15--15-14--|-----------|
B|-----------------------------|--(15)-----|
G|-----------------------------|-----------|
D|-----------------------------|--fade in--|
A|-----------------------------|-----------|
E|-----------------------------|-----------|


Horn solo plays one more time, 
Hold last note of horn solo until end

e|----14-------------|
B|-------------------|
G|-------------------|
D|-------------------|
A|-------------------|
E|-------------------|


 Guitar: End
e|---------------------------------|
B|---------------------------------|
G|---------------------------------|
D|---------------------------------|
A|--5----3-5-3-5---3-5-3-0---------|
E|-------------------------1---3---|



************************************

| (n)  Ghost note

************************************

            
            
Suggest correction
Creating personal tab
Creating personal tab
You can edit any tab online and save it as your Personal.

You can edit, replace or remove any tab part or add personal notes – all changes will be seen only by you.

Personal tabs can be accessed anytime from any device, even offline.
Learn more »
comments
print report bad tab
5 comments total. Showing first comments.
0 reply
lounge act 99 Apr 12, 2007 02:14 PM

good tab!

+1 reply
Radeon92 10 Oct 29, 2008 02:35 AM

:D correction..

AWESOME tab.

Chuck theme FTW!

+1 reply
jiligier 182 Jun 16, 2013 09:53 PM

Amazing tab, but as a trumpet player, it bothers me that it says "Horn" instead of trumpet lol

guest
You may want to rate the tab now too:
select rating
Wanna post a correction for this tab? Suggest correction