Oops, an error
Loading. Please wait.

The Lord Knows Im Drinking bass

10 views 1 this week
no commentswrite comment
1 2 3 4 5
3 more votes to show rating
add to favorites
×
Save as Personal and add changes to this tab that will be seen only by you. Learn more ›
×
You can save this tab as Personal to edit and correct it or add notes. All changes will be seen only by you. Learn more »
launch autoscroll
font size
0
reset
guitar tuner
edit
Autoscroll
slow
fast
+/-
esc
set tempo
stop
Tabbed Tabbed by: 6METAL6BASSIST6
E-mail: petergriffinav@gmail.com

Tuning: EADG

This version. https://www.youtube.com/watch?v=6voAw66Bxko

G|------------------------------------------------------------------------------------------------|
D|------------------------------------------------------------------------------------------------|
A|------------7-----------------------7-----------------------7-------7---------------------------|
E|5-----------------------5-----------------------5-----------------------5-----------------------|

0:09

G|------------------------------------------------------------------------------------------------|
D|------------------------------------------------------------------------------------------------|
A|------------7-----------------------7-----------------------7-------------------------------4---|
E|5-----------------------5-----------------------5-----------------------5-----------5---7-------|

G|------------------------------------------------------------------------------------------------|
D|------------------------------------------------------------------------------------------------|
A|5-----------------------5-----------------------5-----------------------5-----------5---4-------|
E|------------5-----------------------5-----------------------5-------------------------------7---|

0:24

G|------------------------------------------------------------------------------------------------|
D|------------------------------------------------------------------------------------------------|
A|------------7-------------------------------4---5-----------------------5-----------5---4-------|
E|5-----------------------5-----------5---7-------------------5-------------------------------7---|

G|------------------------------------------------------------------------------------------------|
D|------------7---6---4---------------------------------------------------------------------------|
A|------------------------7-----------7-----------------------7-----------------------------------|
E|5-----------------------------------------------5------------------------5----------0---2---4---|

0:39

G|------------------------------------------------------------------------------------------------|
D|------------------------------------------------------------------------------------------------|
A|------------7-----------------------7-----------------------7-------------------------------4---|
E|5-----------------------5-----------------------5-----------------------5-----------5---7-------|

G|------------------------------------------------------------------------------------------------|
D|------------------------------------------------------------------------------------------------|
A|5-----------------------5-----------------------5-----------------------5-----------5---4-------|
E|------------5-----------------------5-----------------------5-------------------------------7---|

0:54

G|------------------------------------------------------------------------------------------------|
D|------------------------------------------------------------------------------------------------|
A|------------7-------------------------------4---5-----------------------5-----------5-----------|
E|5-----------------------5-----------5---7-------------------5-------------------------------7---|

G|------------------------------------------------------------------------------------------------|
D|------------7---6---4---------------------------------------------------------------------------|
A|------------------------7-----------7-------7---------------7-------------------------------4---|
E|5-----------------------------------------------5------------------------5----------5---7-------|

1:09

G|------------------------------------------------------------------------------------------------|
D|------------------------------------------------------------------------------------------------|
A|5-----------------------5-----------5---4-------------------7-------------------------------4---|
E|------------5-------------------------------7---5------------------------5----------5---7-------|

G|------------------------------------------------------------------------------------------------|
D|------------------------------------------------------------------------------------------------|
A|5-----------------------5-------------------5---7------------------------7----------7-------4---|
E|------------5-----------------------5---7-------------------7---------------------------7-------|

1:24

G|------------------------------------------------------------------------------------------------|
D|------------------------------------------------------------------------------------7---6---4---|
A|5-----------------------5-----------5-----------------------7-----------------------------------|
E|------------5-------------------------------7---5------------------------5----------------------|

G|------------------------------------------------------------------------------------------------|
D|------------------------------------------------------------------------------------------------|
A|7-----------------------7-----------7-----------------------7-----------------------------------|
E|------------7-----------------------------------5------------------------5----------0---2---4---|

G|------------------------------------------------------------------------------------------------|
D|------------------------------------------------7-----------------------------------------------|
A|------------7-----------------------7-------7---------------7-----------------------------------|
E|5-----------------------5-------5----------------------------------------5----------0---2---4---|

1:46

G|------------------------------------------------------------------------------------------------|
D|------------------------------------------------------------------------------------------------|
A|------------7-----------------------7-----------------------7-------------------------------4---|
E|5-----------------------5-----------------------5-----------------------5-----------5---7-------|

G|------------------------------------------------------------------------------------------------|
D|------------------------------------------------------------------------------------------------|
A|5-----------------------5-----------------------5-----------------------5-----------5---4-------|
E|------------5-----------------------5-----------------------5-------------------------------7---|

2:01

G|------------------------------------------------------------------------------------------------|
D|------------------------------------------------------------------------------------------------|
A|------------7-------------------------------4---5-----------------------5-----------5-----------|
E|5-----------------------5-----------5---7-------------------5-------------------------------7---|

G|------------------------------------------------------------------------------------------------|
D|------------7---6---4---------------------------------------------------------------------------|
A|------------------------7-----------7-----------------------7-------------------------------4---|
E|5-----------------------------------------------5------------------------5----------5---7-------|

2:16

G|------------------------------------------------------------------------------------------------|
D|------------------------------------------------------------------------------------------------|
A|5-----------------------5-----------5-----------------------7-------------------------------4---|
E|------------5-------------------------------7---5------------------------5----------5---7-------|

G|------------------------------------------------------------------------------------------------|
D|------------------------------------------------------------------------------------------------|
A|5-----------------------5-------------------5---7------------------------7----------7-------4---|
E|------------5-----------------------5---7-------------------7---------------------------7-------|

2:31

G|------------------------------------------------------------------------------------------------|
D|--------------------------------------------------------------------4---------------7---6---4---|
A|5-----------------------5-----------5-----------------------7-----7---7-------------------------|
E|------------5-------------------------------7---5-----------------------5-----------------------|

G|----------------------------------------------------------------------------------------|
D|--------------------------------------------------------------------4---7---------------|
A|7-----------------------7-----------7-----------------------4---7---------------7-------|
E|------------7-------------------------------7---5-----------------------------------5---|

            
            
Suggest correction
Creating personal tab
Creating personal tab
You can edit any tab online and save it as your Personal.

You can edit, replace or remove any tab part or add personal notes – all changes will be seen only by you.

Personal tabs can be accessed anytime from any device, even offline.
Learn more »
Give kudos to tab author, rate the tab!
1 2 3 4 5
comments
print report bad tab
guest
You may want to rate the tab now too:
select rating
Wanna post a correction for this tab? Suggest correction