Oops, an error
Loading. Please wait.

Ghostwolves tab

version 1
version 1

Whole song

Interactive

323 views 1 this week
1 commentread comment
1 2 3 4 5
3 more votes to show rating
add to favorites
×
Save as Personal and add changes to this tab that will be seen only by you. Learn more ›
×
You can save this tab as Personal to edit and correct it or add notes. All changes will be seen only by you. Learn more »
launch autoscroll
font size
0
reset
how to read this tab
guitar tuner
edit
Autoscroll
slow
fast
+/-
esc
set tempo
stop
-------------------------------------------------------------------------------
                             GHOSTWOLVES - Calabrese
-------------------------------------------------------------------------------
Tabbed by: ninjasweetheart

Tuning: Drop D

Tempo: 184

INTRO PART 1
e|---------------------------------------------------------------------------|
B|---------------------------------------------------------------------------|
G|---------------------------------------------------------------------------|
D|---------------------------------9--9-9-9----------------------------------|
A|-9--9-9-9-7--10--10-10--10-10-7--7--7-7-7--7--6-6-7-7-9-9-10---------------|
D|-9--9-9-9-7--10--10-10--10-10-7------------7--6-6-7-7-9-9-10---------------|

INTRO PART 2 
e|---------------------------------------------------------------------------|
B|---------------------------------------------------------------------------|
G|---------------------------------------------------------------------------|
D|---------------------------------------------------------------------------|
A|---------------------------------7--7-7-7-----6-6-7-7-9-9-10---------------|
D|-9--9-9-9-7--10--10-10--10-10-7------------7--6-6-7-7-9-9-10\--------------|

VERSE ("Yeah, in the water...")
e|---------------------------------------------------------------------------|
B|---------------------------------------------------------------------------|
G|---------------------------------------------------------------------------|
D|-9-9-9-10--9-9---7-7---5--5-5----------------------------------------------|
A|-7-7-7-7---7-7-0-5-5-0-3--3-3----------------------------------------------|
D|---------------------------------------------------------------------------|

PRE-CHORUS ("There's a man with a cross...")
e|---------------------------------------------------------------------------|
B|---------------------------------------------------------------------------|
G|---------------------------------------------------------------------------|
D|-4--4-4-4-4-4-4---7--7-7-7-7-7-7-------------------------------------------|
A|-2--2-2-2-2-2-2---5--5-5-5-5-5-5----5--5-5-5-5-5-5--8--8x8x8x8x8x8x8x8x8x8\|
D|------------------------------------5--5-5-5-5-5-5--8--8x8x8x8x8x8x8x8x8x8\|

CHORUS PART 1 ("Stench of death on the rise...")
e|----------------------------------------------------------------------------------|
B|----------------------------------------------------------------------------------|
G|----------------------------------------------------------------------------------|
D|-4--4-4-4----------------------7--7-7-7--4--4-4-4---------------------------------|
A|-2--2-2-2--4--4-4-4--5--5-5-5--5--5-5-5--2--2-2-2--4--4-4-4--5--5-5-5-/\--0-0-0-0-|
D|-----------4--4-4-4--5--5-5-5----------------------4--4-4-4--5--5-5-5-/\--0-0-0-0-|

CHORUS PART 2 ("Ghosts from the beyond...")
e|---------------------------------------------------------------------------|
B|---------------------------------------------------------------------------|
G|-44444444-------------------77777777-44444444------------------------------|
D|-44444444-44444444-55555555-77777777-44444444-44444444-5555555-----0-0-0-0-|
A|-22222222-44444444-55555555-55555555-22222222-44444444-5555555-/\--0-0-0-0-|
D|----------44444444-55555555-------------------44444444-5555555-/\--0-0-0-0-|

BREAK
e|---------------------------------------------------------------------------|
B|---------------------------------------------------------------------------|
G|---------------------------------------------------------------------------|
D|---------------------------------------------------------------------------|
A|-2--2x2x2x2x2x2x2x2x2x2x2x2x2x2x2x2x2x2x2x2x2x2x-2-2-2-2-2-/---------------|
D|-2--2x2x2x2x2x2x2x2x2x2x2x2x2x2x2x2x2x2x2x2x2x2x-2-2-2-2-2-/---------------|

ODD RIFF
e|---------------------------------------------------------------------------|
B|---------------------------------------------------------------------------|
G|---------------------------------------------------------------------------|
D|---------------------------------------------------------------------------|
A|---------------------------------------------------------------------------|
D|-9-9-9-8-8-8-8-8-7-7-7-8-8-8-8-8-------------------------------------------|

SOLO PART 1
e|---------------------------------------------------------------------------|
B|---------------------------------------------------------------------------|
G|---------------------------------------------------------------------------|
D|---9-----9---9---7-----7---7----9-------9----9--10-10-10-9--9--9--9--------|
A|-7---7-7---7---9---9-9---9---10---10-10---10----12-12-12-10-10-10-10-------|
D|---------------------------------------------------------------------------|

SOLO PART 2
e|---------------------------------------------------------------------------|
B|---------------------------------------------------------------------------|
G|-9--9--9--9\--11-11-11-11\--12-12-12-12--14-14-14-14\----------------------|
D|---------------------------------------------------------------------------|
A|-7--7--7--7\---9--9--9--9\--10-10-10-10--12-12-12-12\----------------------|
D|---------------------------------------------------------------------------|

SOLO PART 3
e|----------------------------------------------12+-----------------------------------------|
B|----------------------------------------------12+-----------------------------------------|
G|----------------------------------------------12+-----------------------------------------|
D|----------------------------------------------12+-----------------------------------------|
A|--/13br13br13r13br13br13-13br13br13-13br13br----------------------------------------------|
D|------------------------------------------------------------------------------------------|

OUTRO
e|-----0-----0-----0-----0-----0-----0-----0-----0---0-----------------------|
B|-----0-----0-----0-----0-----0-----0-----0-----0---0-----------------------|
G|-----0-----0-----0-----0-----0-----0-----0-----0---0-----------------------|
D|---------------------------------------------------9-----------------------|
A|---------------------------------------------------7-----------------------|
D|-9-9---8-8---7-7---8-8---9-9---8-8---7-7---8-8-----------------------------|


And that's it! Most accurate version I've seen :) I actually learned this so we could cover it in a band and
decided I should share it. Pretty easy but fun to play!

Enjoy & believe in rock n roll :)


************************************

| /   slide up
| \   slide down
| h   hammer-on
| p   pull-off
| ~   vibrato
| +   harmonic
| x   Mute note
| b   Bend
| pb  Pre-bend
| br  Bend release
| pbr Pre-bend release
| brb Bend release bend

************************************

            
            
Suggest correction
Creating personal tab
Creating personal tab
You can edit any tab online and save it as your Personal.

You can edit, replace or remove any tab part or add personal notes – all changes will be seen only by you.

Personal tabs can be accessed anytime from any device, even offline.
Learn more »
Give kudos to tab author, rate the tab!
1 2 3 4 5
comments
print report bad tab
1 comment total.
0 reply
ninjasweetheart 204 Feb 13, 2015 04:33 AM

Please let me know what you think! I have a few more Calabrese songs that I've learned and could tab them, but would like to know if people are happy with this one :)

guest
You may want to rate the tab now too:
select rating
Wanna post a correction for this tab? Suggest correction