Oops, an error
Loading. Please wait.

Paralyzed tab

version 1
version 1

Whole song

Interactive

by Caliban
1,390 views 3 this week
1 commentread comment
1 2 3 4 5
x 3
add to favorites
×
Save as Personal and add changes to this tab that will be seen only by you. Learn more ›
×
You can save this tab as Personal to edit and correct it or add notes. All changes will be seen only by you. Learn more »
launch autoscroll
font size
0
reset
how to read this tab
guitar tuner
edit
Autoscroll
slow
fast
+/-
esc
set tempo
stop
|--------------------------------------------------------------------------------------------------------|
|                                           CALIBAN - PARALYZED                                          |
|                                           Album: Gravity (2016)                                        |
|                                             Tab by Godspeedy                                           |
|--------------------------------------------------------------------------------------------------------|

                   If you have questions or corrections feel free to send me a message:
                                    https://www.facebook.com/Godspeedy14
                     
                 Also check out my Youtube channel: http://www.youtube.com/user/Godspeedy14

                                        Tuning: 6 strings BEADF#B 
                                                    
*********************************************GUITAR NOTATIONS*********************************************
*                                                                                                        *
*                                      | *   palm mute           |                                       *
*                                      | s   slide               |                                       *
*                                      | /s  slide in from below |                                       *
*                                      | ~   vibrato             |                                       *
*                                      | +   pinch harmonics     |                                       *
*                                      | b   bend                |                                       *
*                                      | ..  let ring            |                                       *
*                                                                                                        *
**********************************************************************************************************

|--------------------------------------------------------------------------------------------------------|
|                                          INTRO (00:00-00:28)                                           |
|--------------------------------------------------------------------------------------------------------|

Guitars 1 and 2 (w/ dist)

 B|----------------------------------|---------------------------------|
F#|----------------------------------|---------------------------------|
 D|----------------------------------|---------------------------------|
 A|----------------------------------|---------------------------------|
 E|----------------------------/s5-5-|-8-8-----------------------------|
 B|-5-5-0-0-0-0-1-1-0-0-1-1-5-5------|-----0-0-0-0-5-5-0-0-5-5-5-5-0-0-|

 B|----------------------------------|----------------------------------|
F#|----------------------------------|----------------------------------|
 D|----------------------------------|----------------------------------|
 A|----------------------------------|----------------------------------|
 E|----------------------------/s5-5-|-8-8---------3-3-5-5--------/s7-7-|
 B|-5-5-0-0-0-0-1-1-0-0-1-1-5-5------|-----0-0-0-0---------3-3-6-6------|

 B|----------------------------------|---------------------------------|
F#|----------------------------------|---------------------------------|
 D|----------------------------------|---------------------------------|
 A|----------------------------------|---------------------------------|
 E|-7-7------------------------/s5-5-|-8-8-----------------------------|
 B|-----0-0-0-0-1-1-0-0-1-1-5-5------|-----0-0-0-0-5-5-0-0-5-5-5-5-0-0-|

 B|----------------------------------|-----------------------------|
F#|----------------------------------|-----------------------------|
 D|----------------------------------|-----------------------------|
 A|----------------------------------|-----------------------------|
 E|----------------------------/s5-5-|-8-8---------3--5-------/s7~~|
 B|-5-5-0-0-0-0-1-1-0-0-1-1-5-5------|-----0-0-0-0-------3--6------|

|--------------------------------------------------------------------------------------------------------|
|                                          VERSE (00:28-00:41)                                           |
|--------------------------------------------------------------------------------------------------------|

Guitars 1 and 2 (w/ dist)

 B|-----------------------|------------------------|------------------------|-------------------------|
F#|-----------------------|------------------------|------------------------|-------------------------|
 D|-----------------------|------------------------|------------------------|-------------------------|
 A|-----------------------|------------------------|------------------------|-------------------------|
 E|~~~------------------5-|-8----------------------|----------------------5-|-8--------3--5-------/s7~|
 B|---0--0--0--0--1--5----|----0--0--0--0--5--5--0-|-5--0--0--1--0--1--5----|----0--0--------3--6-----|
      *  *     *               *  *     *               *  *     *               *  *       
 B|-----------------------|------------------------|------------------------|-------------------------|
F#|-----------------------|------------------------|------------------------|-------------------------|
 D|-----------------------|------------------------|------------------------|-------------------------|
 A|-----------------------|------------------------|------------------------|-------------------------|
 E|~~~------------------5-|-8----------------------|----------------------5-|-8--------3--5-------/s7~|
 B|---0--0--0--0--1--5----|----0--0--0--0--5--5--0-|-5--0--0--1--0--1--5----|----0--0--------3--6-----|
      *  *     *               *  *     *               *  *     *               *  *

|--------------------------------------------------------------------------------------------------------|
|                                        PRE-CHORUS (00:41-00:48)                                        |
|--------------------------------------------------------------------------------------------------------|

Guitars 1 and 2 (w/ dist)

 B|-----------------------|------------------------|------------------------|-------------------------|
F#|-----------------------|------------------------|------------------------|-------------------------|
 D|-----------------------|------------------------|------------------------|-------------------------|
 A|-----------------------|------------------------|------------------------|-------------------------|
 E|~~~7--7--7--7--7--7--7-|-7--7--7--7--7--7--7--5-|-8--5--5--5--5--5--5--5-|-2-2-2--2--2--2--2--2--2-|
 B|---5--5--5--5--5--5--5-|-5--5--5--5--5--5--5----|----3--3--3--3--3--3--3-|-0-0-0--0--0--0--0--0--0-|
      *  *     *     *  *      *  *     *     *            *     *     *  *   * * *  *  *  *  *  *  *

|--------------------------------------------------------------------------------------------------------|
|                                          CHORUS (00:48-01:27)                                          |
|--------------------------------------------------------------------------------------------------------|

Guitars 1 and 2 (w/ dist)

 B|------------------------|------------------------|------------------------|------------------------|
F#|------------------------|------------------------|------------------------|------------------------|
 D|------------------------|-------------7--7--7--7-|------------------------|-------------7--7--7--7-| x4
 A|-3--3--3--3--3--3--3--3-|-3--3--3--3--7--7--7--7-|-7--7--7--7--7--7--7--7-|-7--7--7--7--7--7--7--7-|
 E|-3--3--3--3--3--3--3--3-|-3--3--3--3--5--5--5--5-|-7--7--7--7--7--7--7--7-|-7--7--7--7--5--5--5--5-|
 B|-1--1--1--1--1--1--1--1-|-1--1--1--1-------------|-5--5--5--5--5--5--5--5-|-5--5--5--5-------------|

 B|----------------------------|----------------------------|
F#|----------------------------|----------------------------|
 D|----------------------------|----------------------------|
 A|----------------------------|----------------------------|
 E|-3b-------------------------|-3b-------------------------|
 B|----1-1-1-1-1-1-1--1-1--1-1-|----1-1-1-1-1-1-1--0-0--0-0-|\
    +  * * * * * *    *    *     +  * * * * * *    *    *     x2
 B|----------------------------|----------------------------|/
F#|----------------------------|----------------------------|
 D|----------------------------|----------------------------|
 A|----------------------------|----------------------------|
 E|-3b-------------------------|----------------------------|
 B|----1-1-1-1-1-1-1--1-1--1-1-|-1--4--4--0-0-4--0-0--0-0---|
    +  * * * * * *    *    *              * *    *    *

|--------------------------------------------------------------------------------------------------------|
|                                       POST-CHORUS (01:27-01:41)                                        |
|--------------------------------------------------------------------------------------------------------|
                                              same as INTRO
|--------------------------------------------------------------------------------------------------------|
|                                         VERSE 2 (01:41-01:54)                                          |
|--------------------------------------------------------------------------------------------------------|
                                              same as VERSE
|--------------------------------------------------------------------------------------------------------|
|                                       PRE-CHORUS 2 (01:54-02:02)                                       |
|--------------------------------------------------------------------------------------------------------|
                                            same as PRE-CHORUS
|--------------------------------------------------------------------------------------------------------|
|                                         CHORUS 2 (02:02-02:42)                                         |
|--------------------------------------------------------------------------------------------------------|

Guitars 1 and 2 (w/ dist)

 B|------------------------|------------------------|------------------------|------------------------|
F#|------------------------|------------------------|------------------------|------------------------|
 D|------------------------|-------------7--7--7--7-|------------------------|-------------7--7--7--7-| x4
 A|-3--3--3--3--3--3--3--3-|-3--3--3--3--7--7--7--7-|-7--7--7--7--7--7--7--7-|-7--7--7--7--7--7--7--7-|
 E|-3--3--3--3--3--3--3--3-|-3--3--3--3--5--5--5--5-|-7--7--7--7--7--7--7--7-|-7--7--7--7--5--5--5--5-|
 B|-1--1--1--1--1--1--1--1-|-1--1--1--1-------------|-5--5--5--5--5--5--5--5-|-5--5--5--5-------------|

 B|----------------------------|----------------------------|
F#|----------------------------|----------------------------|
 D|----------------------------|----------------------------|
 A|----------------------------|----------------------------|
 E|-3b-------------------------|-3b-------------------------|
 B|----1-1-1-1-1-1-1--1-1--1-1-|----1-1-1-1-1-1-1--0-0--0-0-|
    +  * * * * * *    *    *     +  * * * * * *    *    *    
 B|----------------------------|----------------------------|
F#|----------------------------|----------------------------|
 D|----------------------------|----------------------------|
 A|----------------------------|----------------------------|
 E|-3b-------------------------|----------------------------|
 B|----1-1-1-1-1-1-1--1-1--1-1-|----------------------------|
    +  * * * * * *    *    * 
 B|----------------------------|----------------------------|
F#|----------------------------|----------------------------|
 D|----------------------------|----------------------------|
 A|----------------------------|----------------------------|
 E|-3b-------------------------|-3b-------------------------|
 B|----1-1-1-1-1-1-1--1-1--1-1-|----1-1-1-1-1-1-1--0-0--0-0-|
    +  * * * * * *    *    *     +  * * * * * *    *    *    
 B|----------------------------|----------------------------|
F#|----------------------------|----------------------------|
 D|----------------------------|----------------------------|
 A|----------------------------|----------------------------|
 E|-3b-------------------------|----------------------------|
 B|----1-1-1-1-1-1-1--1-1--1-1-|----4--4--0-0-4--0----------|
    +  * * * * * *    *    * 

|--------------------------------------------------------------------------------------------------------|
|                                          BRIDGE (02:42-03:25)                                          |
|--------------------------------------------------------------------------------------------------------|

I. Guitar 1 (w/ clean and delay)

E|-------19----|-------19--------|-------19----|-------19----|
B|-17----------|-17----------20--|-------------|-------------|
G|-------------|-----------------|-17----------|-17----------|
D|-------------|-----------------|-------------|-------------|
A|-------------|-----------------|-------------|-------------|
E|-------------|-----------------|-------------|-------------|

E|-------19----|-------19--------|-------19----|-------------|
B|-17----------|-17----------20--|-------------|-------------|
G|-------------|-----------------|-17----------|-17----------|
D|-------------|-----------------|-------------|-------------|
A|-------------|-----------------|-------------|-------------|
E|-------------|-----------------|-------------|-------------|

II. Guitars 1 and 2 (w/ dist)

        ................     ...............
 B|------------|-------|------------|-------|
F#|------------|-------|------------|-------|
 D|------------|-------|------------|-------| x4
 A|-5---7------|-------|-2---3------|-------|
 E|-5---7------|-------|-2---3------|-------|
 B|-3---5------|-------|-0---1------|-------|

    Guitar 3 (w/ clean and delay)

E|-------19----|-------19--------|-------19----|-------19----|
B|-17----------|-17----------20--|-------------|-------------|
G|-------------|-----------------|-17----------|-17----------|
D|-------------|-----------------|-------------|-------------|
A|-------------|-----------------|-------------|-------------|
E|-------------|-----------------|-------------|-------------|

|--------------------------------------------------------------------------------------------------------|
|                                         CHORUS 3 (03:25-04:08)                                         |
|--------------------------------------------------------------------------------------------------------|
                                             same as CHORUS 2
|--------------------------------------------------------------------------------------------------------|
|                                          OUTRO (04:08-04:28)                                           |
|--------------------------------------------------------------------------------------------------------|

Guitar 1 (w/ clean and delay)

E|-------19----|-------19--------|-------19----|-------19----|
B|-17----------|-17----------20--|-------------|-------------|
G|-------------|-----------------|-17----------|-17----------|
D|-------------|-----------------|-------------|-------------|
A|-------------|-----------------|-------------|-------------|
E|-------------|-----------------|-------------|-------------|




            
            
Suggest correction
Creating personal tab
Creating personal tab
You can edit any tab online and save it as your Personal.

You can edit, replace or remove any tab part or add personal notes – all changes will be seen only by you.

Personal tabs can be accessed anytime from any device, even offline.
Learn more »
Give kudos to tab author, rate the tab!
1 2 3 4 5
comments
print report bad tab
1 comment total.
0 reply
shadow900 1,703 Mar 13, 2016 06:15 AM

Nice work dude you tab the other one they dropped Mein Schwarzes Herz

guest
You may want to rate the tab now too:
select rating
Wanna post a correction for this tab? Suggest correction