Oops, an error
Loading. Please wait.

Como Olvidarte tab

26 views 1 this week
no commentswrite comment
1 2 3 4 5
3 more votes to show rating
add to favorites
×
Save as Personal and add changes to this tab that will be seen only by you. Learn more ›
×
You can save this tab as Personal to edit and correct it or add notes. All changes will be seen only by you. Learn more »
launch autoscroll
font size
0
reset
how to read this tab
guitar tuner
edit
Autoscroll
slow
fast
+/-
esc
set tempo
stop
SOLO HAGO ESTA MODIFICACION PARA PONER LOS RASGUEOS Y LAS NOTAS SUELTAS.

    C                   G                Am

1 |--------0---------|-------3---------|-------0----------------------|
2 |---1--------1---1-|---0-----0---0---|---1-----1---1----------------|
3 |--------------0---|-----0-----0-----|-----2-----2------------------|
4 |-----2------------|-----------------|--------------------3--2--0---|
5 |-3----------------|-----------------|-0----------------------------|
6 |------------------|-3---------------|------------------------------|

    C                   G                Am                             F

1 |--------0---------|-------3---------|-------0------------------------1----|
2 |---1--------1---1-|---0-----0---0---|---1-----1---1------------------1----|
3 |--------------0---|-----0-----0-----|-----2-----2--------------------2----|
4 |-----2------------|-----------------|--------------------3--2--0-----3----|
5 |-3----------------|-----------------|-0------------------------------3----|
6 |------------------|-3---------------|--------------------------------1----|

C
solo pensado
      G             Am               4|-3--2--0--
en mi habitacion ooooo               5|----------......
C
solo pensado
       G             Am
en mi habitacion  ooooo
 F                                   2|-6--5-------6--5-------
como olvidarte                       3|-------5----------5----.......

C
sin tu amor
G               Am
ya no puedo mas seguir
C             G
para que quiero esta vida
       Am
si ya no te tengo aqui

C            G           Am
Tu parecias una rosa tan hermosa
C             G           Am
pero tambien me pudiste dañar
F        G                           2|-6--5-------6--5-------
con tus espinas                      3|-------5----------5----.......

EXACTAMENTE ASI VA TODA LA CANCION
SOLO UBIQUEN BIEN DONDE METER LAS NOTAS SUELTAS
SE OYE 95% IGUAL.

            
            
Suggest correction
Creating personal tab
Creating personal tab
You can edit any tab online and save it as your Personal.

You can edit, replace or remove any tab part or add personal notes – all changes will be seen only by you.

Personal tabs can be accessed anytime from any device, even offline.
Learn more »
Give kudos to tab author, rate the tab!
1 2 3 4 5
comments
print report bad tab
guest
Wanna post a correction for this tab? Suggest correction