Oops, an error
Loading. Please wait.

Duele tab

54 views 1 this week
no commentswrite comment
1 2 3 4 5
3 more votes to show rating
add to favorites
×
Save as Personal and add changes to this tab that will be seen only by you. Learn more ›
×
You can save this tab as Personal to edit and correct it or add notes. All changes will be seen only by you. Learn more »
launch autoscroll
font size
0
reset
how to read this tab
guitar tuner
edit
Autoscroll
slow
fast
+/-
esc
set tempo
stop
Aqui esta esta super rola de su material Magia Negra

Intro:

E------------------------------------------------------------------
A------------------------------------------------------------------
D------------------------------------------------------------------
G--9--9-9-9-9-9-7--5-7-9--9-9-9-9-9-7--11-7-9--9-9-9-9-9-7--5-7-9--
B--8--8-8-8-8-8-7--5-7-8--8-8-8-8-8-7--10-7-8--8-8-8-8-8-7--5-7-8--
e------------------------------------------------------------------

E---------------I-----------------
A---------------I-----------------
D------------9--I--9-----------9--
G--9-9-9-9-9-9--I----7-9---9-7----
B--8-8-8-8-8----I--------8--------
e---------------I-----------------


E------------------------------------------------------------------
A------------------------------------------------------------------
D------------------------------------------------------------------
G--9--9-9-9-9-9-7--5-7-9--9-9-9-9-9-7--11-7-9--9-9-9-9-9-7--5-7-9--
B--8--8-8-8-8-8-7--5-7-8--8-8-8-8-8-7--10-7-8--8-8-8-8-8-7--5-7-8--
e------------------------------------------------------------------

E---------------I------------------I------------
A---------------I------------------I------------
D------------9--I--9-----------9---I------------
G--9-9-9-9-9-9--I----7-9---9-7---9-I--------12--
B--8-8-8-8-8----I--------8---------I-----12-----
e---------------I------------------I--12--------

    Em              Am
A noche desperte llorando
D                      G
Por que tu no estabas mas aqui
        B7           Em
Junto a mi...como ayer
Em                    Am
Despues, comprendi lo cruel
              D
De tu traicion
             G            G-F#m-G  Em
Que tu solo jugabas y que era lo mejor
                Am
Pues con tus mentiras destruiste
     B7             Em        E7 Riff 1
El amor...que yo sentia por ti

      Am
Y eso Duele
       D                              G  Riff 2--Em-E7--Riff1
Duele mas que 1000 puñales en el corazon
      Am
Y eso duele
      D                            G  Riff 2
Me lastima aqui en el alma tu traicion

C
Yo que todo te lo daba
        B7
Todo a cambio de nada
     Em
Corazon


Solo

E------------------------------------------------
A------------------------------------------------
D------------------------------------------------
G--7/9-9--7/9---------------9-9-7--7-6--6-6/7-7--
B-------------7-8--8/7/8--7----------------------
e------------------------------------------------

E---------------------------------------
A---------------------------------------
D---------------------------------------
G--5/7-9---------9-7-7-5--5-4--4-4/5-5--
B---------7/8/7-------------------------
e---------------------------------------

E-------------------------------------
A-------------------------------------
D--------------------------------2~~--
G--5-7----------7-5-5-4--4^--4h2------
B------5--5/7/5-----------------------
e-------------------------------------

E-----------------------------------------------------------------
A-----------------------------------------------------------------
D-----------------------------------------------------------------
G-----------------------------------------------------------------
B-----------------------------------------------------------------
e--10/12-12--10/12-14-15--15/17/15--14-12-12-10--10-9--9-9/10-10--

E-----------------------------------------------
A-----------------------------------------------
D-----------------------------------------------
G-----------------------------------------------
B-----------------------------------------------
e--8/10-12--14/15/14--12-10-10-8--8-7--7-7/8-8--

E--------------------------------------------
A--------------------------------------------
D--------------------------------------------
G--------------------------------------------
B---------------------------------------5~~--
e--8-10-12--12/14/12--10-8-8-7--7^--7h5------


Am
Y eso Duele
       D                              G  Riff 2--Em-E7--Riff 1
Duele mas que 1000 puñales en el corazon
      Am
Y eso duele
      D                            G  Riff 2
Me lastima aqui en el alma tu traicion

C
Yo que todo te lo daba
        B7
Todo a cambio de nada
          (Intro)
Corazon...


Riff 1

E----------
A----------
D----------
G----------
B--3-5~~~--
e----------

Riif 2

E------------------------
A------------------------
D------------------------
G--12-11--12-11-12-9~~~--
B------------------------
e------------------------

Cualquie duda o comentario....risk_jr@

            
            
Suggest correction
Creating personal tab
Creating personal tab
You can edit any tab online and save it as your Personal.

You can edit, replace or remove any tab part or add personal notes – all changes will be seen only by you.

Personal tabs can be accessed anytime from any device, even offline.
Learn more »
Give kudos to tab author, rate the tab!
1 2 3 4 5
comments
print report bad tab
guest
Wanna post a correction for this tab? Suggest correction