Oops, an error
Loading. Please wait.

Esa Vez tab

46 views 1 this week
no commentswrite comment
1 2 3 4 5
3 more votes to show rating
add to favorites
×
Save as Personal and add changes to this tab that will be seen only by you. Learn more ›
×
You can save this tab as Personal to edit and correct it or add notes. All changes will be seen only by you. Learn more »
launch autoscroll
font size
0
reset
how to read this tab
guitar tuner
edit
Autoscroll
slow
fast
+/-
esc
set tempo
stop
Intro

              Em       A               D         Bm
E-----------I-------I-------I--------------I---------
A--0-2---2--I---2---I-------I--0-2---------I---4--2--
D------0----I---2---I---2---I-----0-0h2-0--I--0------
G-----------I-------I---2---I--------------I---------
B-----------I-------I---2---I--------------I---------
e-----------I-------I-------I--------------I---------

                Em      F#                     (pausa)
E-----------I-------I---2---I----------------------
A--0-2---2--I---2---I---4---I------------4---4-2---
D------0----I---2---I---4---I--4--2h4h2----2-------
G-----------I-------I---3---I----------------------
B-----------I-------I---2---I----------------------
e-----------I-------I---2---I----------------------

                Em
Otra vez la misma discucion
       A
Otra vez he perdido el control
      Bm                  Em
Esta vez no lo pude evitar
        F#                 Bm(pausa)
Y esta vez si me vas a dejar

                  Em
El amor por la puerta se fue
        A                  D
Y el alcohol un amigo ya es
     Bm                Em
Es asi me quisiera morir
             F#                 Bm-B7
Hay que dificil es la vida sin ti

B7     G       A
Y esa vez(esa vez)
                D          Bm
No te pude detener(ah ah ah)
B7     G       A
Y esa vez(esa vez)
                 D          Bm
No te pude contener(ah ah ah)

    G
Y llore como un niño
     A           (pausa)
Al haberte perdido
                   Bm(pausa)
A donde voy no lo se


Solo..........Una guitarra el intro y la otra el solo(al mismo tiempo)

E----------------------------------------------------
A----------------------------------------------------
D----------------------------------------------------
G----------------------------------------------------
B----------------------------------------------------
e--17-17-17/15--15-15-15/14--14-14--14/12--12-12-12--

E---------------------------------------------------
A---------------------------------------------------
D---------------------------------------------------
G---------------------------------------------------
B---------------------------------------------------
e--15-14-15/14--14-14-14/12--12-12-12/10--10-10-10--

E--------------------I------------------------
A--------------------I------------------------
D--------------------I---------------------9--
G--------------------I--12--12/11--9-7-9-7----
B----10--10-12-10----I------------------------
e--12------------14--I------------------------

Y esa Vez...

Y llore como un niño...

            
            
Suggest correction
Creating personal tab
Creating personal tab
You can edit any tab online and save it as your Personal.

You can edit, replace or remove any tab part or add personal notes – all changes will be seen only by you.

Personal tabs can be accessed anytime from any device, even offline.
Learn more »
Give kudos to tab author, rate the tab!
1 2 3 4 5
comments
print report bad tab
guest
Wanna post a correction for this tab? Suggest correction