Oops, an error
Loading. Please wait.

Insane tab

version 2
version 2

Whole song

Interactive

4,668 views 1 this week
27 commentsread comments
1 2 3 4 5
x 8
add to favorites
×
Save as Personal and add changes to this tab that will be seen only by you. Learn more ›
×
You can save this tab as Personal to edit and correct it or add notes. All changes will be seen only by you. Learn more »
launch autoscroll
font size
0
reset
how to read this tab
guitar tuner
edit
Autoscroll
slow
fast
+/-
esc
set tempo
stop
Author
Song: Insane
Artist: Callalily
Ear Tabber: Elvin Hayes Gentiles
School: Parañaque National High School (DOST)

HI po sa lahat.. pakirate naman po to.. thanks po... hi po kay JOYMELIE....

Intro part 1:
Guitar 1:
e|---------------------------------------------------------------|
B|----8----8---8-----7----7---7-----8----8---8-----10----10---10-|
G|-77---77---7----77---77---7----77---77---7----77----77----7----|
D|---------------------------------------------------------------|2x 
A|---------------------------------------------------------------|
E|---------------------------------------------------------------|
Guitar 2: (plays after the first round of guitar 1)
e|---------|
B|---------|
G|---------|
D|--5~~~~--|
A|--5~~~~--|
E|--3~~~~--|

Intro part 2:
Guitar 1:
e|------------------------------------------|
B|------------------------------------------|
G|------------44444444--55555555--77777777--|
D|--55555555--44444444--55555555--77777777--| 2x
A|--55555555--22222222--33333333--55555555--| 
E|--33333333--------------------------------|
Guitar 2:
e|-------------------------|------------------------|
B|--8888-8h10/12-15151515--|--8888-8h10/12----------|
G|-------------------------|---------------9-77-99--|
D|-------------------------|------------------------| 2x
A|-------------------------|------------------------|
E|-------------------------|------------------------|

Verse:
Guitar 1:(palm muted)
e|------------------------------------------|
B|------------------------------------------|
G|------------44444444--55555555--77777777--|
D|--55555555--44444444--55555555--77777777--| 4x
A|--55555555--22222222--33333333--55555555--| 
E|--33333333--------------------------------|
Guitar 2:
e|--3~--2~--0~--2~--|
B|--3~--3~--1~--3~--|
G|--0~--4~--0~--2~--|
D|--0~--4~--2~--0~--|
A|--2~--2~--3~------|
E|--3~--------------|

Refrain:
Guitar 1:
e|----------------------|    |------------------------------|
B|----------------------|    |------------------------------|
G|----------------------|    |------------7777777777777777--|
D|--77777777--55555555--| 3x |--33333333--7777777755555555--|
A|--77777777--55555555--|    |--33333333--5555555555555555--|
E|--55555555--33333333--|    |--11111111--------------------|
Guitar 2:
e|----------------------|    |----------------------------------------|
B|----------------------|    |----------------------------------------|
G|----------------------|    |------------7777-9999-1111111-12121212--|
D|--77777777--55555555--| 3x |--33333333--xxxx-xxxx-xxxxxxx-xxxxxxxx--|
A|--77777777--55555555--|    |--33333333--5555-7777-9999999-10101010--|
E|--55555555--33333333--|    |--11111111------------------------------|

Chorus:
Both Guitars:
e|--------------------------------------|
B|----P---------------------------------|
G|----A--77777777--99999999--555555555--|
D|--5-U--77777777--99999999--555555555--|
A|--5-S--55555555--77777777--333333333--|
E|--3-E---------------------------------|
(continued)
e|--------------------------------------|
B|------------------------P-------------|
G|------------77777777--5-A--777777777--|
D|--55555555--77777777--5-U--777777777--|
A|--55555555--55555555--3-S--555555555--|
E|--33333333--------------E-------------|
(continued)
e|------------------------------------------|
B|------------------------------------------|
G|------------77777777--99999999--55555555--|
D|--55555555--77777777--99999999--55555555--|
A|--55555555--55555555--77777777--33333333--|
E|--33333333--------------------------------|
(continued)
e|--------------------------------------|
B|------------------------P-------------|
G|------------77777777--5-A--777777777--|
D|--55555555--77777777--5-U--777777777--|
A|--55555555--55555555--3-S--555555555--|
E|--33333333--------------E-------------|

Interlude: 
Guitar 1:
e|------------------------------------------|
B|------------------------------------------|
G|------------44444444--55555555--77777777--|
D|--55555555--44444444--55555555--77777777--| 2x
A|--55555555--22222222--33333333--55555555--| 
E|--33333333--------------------------------|
Guitar 2: 
e|-------------------------|------------------------|
B|--8888-8h10/12-15151515--|--8888-8h10/12----------|
G|-------------------------|---------------9-77-99--|
D|-------------------------|------------------------| 2x
A|-------------------------|------------------------|
E|-------------------------|------------------------|

Verse:
Guitar 1:(palm muted)
e|------------------------------------------|
B|------------------------------------------|
G|------------44444444--55555555--77777777--|
D|--55555555--44444444--55555555--77777777--| 4x
A|--55555555--22222222--33333333--55555555--| 
E|--33333333--------------------------------|
Guitar 2:
e|--3~--2~--0~--2~--|
B|--3~--3~--1~--3~--|
G|--0~--4~--0~--2~--|
D|--0~--4~--2~--0~--|
A|--2~--2~--3~------|
E|--3~--------------|

Refrain:
Guitar 1:
e|----------------------|    |------------------------------|
B|----------------------|    |------------------------------|
G|----------------------|    |------------7777777777777777--|
D|--77777777--55555555--| 3x |--33333333--7777777755555555--|
A|--77777777--55555555--|    |--33333333--5555555555555555--|
E|--55555555--33333333--|    |--11111111--------------------|
Guitar 2:
e|----------------------|    |----------------------------------------|
B|----------------------|    |----------------------------------------|
G|----------------------|    |------------7777-9999-1111111-12121212--|
D|--77777777--55555555--| 3x |--33333333--xxxx-xxxx-xxxxxxx-xxxxxxxx--|
A|--77777777--55555555--|    |--33333333--5555-7777-9999999-10101010--|
E|--55555555--33333333--|    |--11111111------------------------------|

Chorus:
e|-----------------------------------------------------|
B|----P------------------------------------------------|
G|----A--then slide the-77777777--99999999--555555555--|
D|--5-U--first 4 string-77777777--99999999--555555555--|
A|--5-S--above from 1st-55555555--77777777--333333333--|
E|--3-E--to 9th fret-----------------------------------|
(continued)
e|--------------------------------------|
B|------------------------P-------------|
G|------------77777777--5-A--777777777--|
D|--55555555--77777777--5-U--777777777--|
A|--55555555--55555555--3-S--555555555--|
E|--33333333--------------E-------------|
(continued)
e|------------------------------------------|
B|------------------------------------------|
G|------------77777777--99999999--55555555--|
D|--55555555--77777777--99999999--55555555--|
A|--55555555--55555555--77777777--33333333--|
E|--33333333--------------------------------|
(continued)
e|--------------------------------------|
B|------------------------P-------------|
G|------------77777777--5-A--777777777--|
D|--55555555--77777777--5-U--777777777--|
A|--55555555--55555555--3-S--555555555--|
E|--33333333--------------E-------------|

Adlib:
Guitar 1:
e|------------------------------------------|
B|------------------------------------------|
G|------------44444444--55555555--77777777--|
D|--55555555--44444444--55555555--77777777--| 2x
A|--55555555--22222222--33333333--55555555--| 
E|--33333333--------------------------------|
Guitar 2: 
e|--------101010-888-777----|--------101010-888-777----|
B|--888-----------------88--|--888-----------------88--|
G|-----777------------------|-----777------------------|
D|--------------------------|--------------------------|
A|--------------------------|--------------------------|
E|--------------------------|--------------------------|
(continued)
e|--------------------------|--------------------------|
B|--888----888-----888------|--121212-8888/1515151515--|
G|------777----777-----777--|--------------------------|
D|--------------------------|--------------------------|
A|--------------------------|--------------------------|
E|--------------------------|--------------------------|

Bridge:
Both Guitars:
e|----------------------|    |------------------------------|
B|----------------------|    |------------------------------|
G|----------------------|    |------------7777777777777777--|
D|--77777777--55555555--| 3x |--33333333--7777777755555555--|
A|--77777777--55555555--|    |--33333333--5555555555555555--|
E|--55555555--33333333--|    |--11111111--------------------|

Chorus:
(Acoustic)
e|--33333333--22222222--00000000--00000000--|
B|--33333333--33333333--00000000--11111111--|
G|--00000000--22222222--00000000--00000000--|
D|--00000000--00000000--22222222--22222222--|
A|--22222222------------22222222--33333333--|
E|--33333333--------------------------------|
(continued)                           Guitar 2:
e|--33333333--22222222--0------------|-----------------------------|
B|--33333333--33333333--1-P----------|-----------------------------|
G|--00000000--22222222--0-A-guitar2--|-7777-9999-1111111-12121212--|
D|--00000000--00000000--2-U-enters---|-xxxx-xxxx-xxxxxxx-xxxxxxxx--|
A|--22222222------------3-S----------|-5555-7777-9999999-10101010--|
E|--33333333--------------E----------|-----------------------------|
(continued)
e|------------------------------------------|
B|------------------------------------------|
G|------------77777777--99999999--55555555--|
D|--55555555--77777777--99999999--55555555--|
A|--55555555--55555555--77777777--33333333--|
E|--33333333--------------------------------|
(continued)
e|--------------------------------------|
B|------------------------P-------------|
G|------------77777777--5-A--777777777--|
D|--55555555--77777777--5-U--777777777--|
A|--55555555--55555555--3-S--555555555--|
E|--33333333--------------E-------------|

Outro part1:
Guitar 1:
e|------------------------------------------|
B|------------------------------------------|
G|------------44444444--55555555--77777777--|
D|--55555555--44444444--55555555--77777777--| 2x
A|--55555555--22222222--33333333--55555555--| 
E|--33333333--------------------------------|
Guitar 2:
e|-------------------------|------------------------|
B|--8888-8h10/12-15151515--|--8888-8h10/12----------|
G|-------------------------|---------------9-77-99--|
D|-------------------------|------------------------| 2x
A|-------------------------|------------------------|
E|-------------------------|------------------------|

Outro part 2:
Guitar 1:
e|--------------------------|
B|--------------------------|
G|--------44----55--77-5-4--|
D|--55----44----55--77-5-4--|
A|--55----22----33--55-3-2--|
E|--33----------------------|
(continued)
e|----------------------------|
B|----------------------------|
G|--------44----55--77-5-4----|
D|--55----44----55--77-5-4-55-|
A|--55----22----33--55-3-2-55-|
E|--33---------------------33-|
Guitar 2:
e|---------------------------------------------|
B|---------------------------------------------|
G|--------------44----------55---------77-5-4--|
D|--55----------44-4-3h4-3--55-5-4h5-5-77-5-4--|
A|--55-5-4h5-4--22----------33---------55-3-2--|
E|--33-----------------------------------------|
(continued)
e|-----------------------------------------------|
B|-----------------------------------------------|
G|--------------44----------55---------77-5-4----|
D|--55----------44-4-3h4-3--55-5-4h5-5-77-5-4-55-|
A|--55-5-4h5-4--22----------33---------55-3-2-55-|
E|--33----------------------------------------33-|

enjoy....

            
            
Suggest correction
Creating personal tab
Creating personal tab
You can edit any tab online and save it as your Personal.

You can edit, replace or remove any tab part or add personal notes – all changes will be seen only by you.

Personal tabs can be accessed anytime from any device, even offline.
Learn more »
comments
print report bad tab
27 comments total. Showing first comments.
0 reply
paul21 618 Apr 01, 2007 11:04 PM

WEEEEEEEE!!!!!!!! IKaw na naman.... Elvin!! Wrong Chords poh...

0 reply
paul21 618 Apr 02, 2007 06:47 AM

Elvin!! sa refrain.. Am-G un.. tapos F-D

0 reply
elvin_guitar 397 Apr 02, 2007 08:31 PM

bro!!! nag para kcng baba pag sa refrain ehn Am-G then F-D

guest
You may want to rate the tab now too:
select rating
Wanna post a correction for this tab? Suggest correction