Oops, an error
Loading. Please wait.

Magbalik bass

version 3
5,753 views 12 this week
2 commentsread comments
1 2 3 4 5
x 3
add to favorites
×
Save as Personal and add changes to this tab that will be seen only by you. Learn more ›
×
You can save this tab as Personal to edit and correct it or add notes. All changes will be seen only by you. Learn more »
launch autoscroll
font size
0
reset
guitar tuner
edit
Autoscroll
slow
fast
+/-
esc
set tempo
stop
Author
Song: Magbalik
Band: Callalily
Tabbed by: Gio Agudo


Intro I:
   T T  T      T T  T     T T T      T T T
G|------11/13-----------------11/13-----------|
D|---9--------------9/11----9------------9/11-|
A|-7-------------7--------7------------7------|
E|-------------5---------------------5--------|


Intro II:
G|---------------------------------------------------------------------------|
D|-------------------------------------------------------------------------7-|
A|-----------------------------------------------------------------------7---|
E|-7\-00000000-77777777-/99999999-\55555555--0000000-77777777-9999999-\5-----|


Verse:
G|-----------------------------------------------------|
D|-----9~--9-/11~--11\-7~------9~--9-/11~--11\-7~--7h9-|
A|-7~----------------------7~--------------------------|
E|-----------------------------------------------------|

G|-------------------------------------------------|
D|-----9~--9-/11~--11\-7~------9~--9-/11~--11\-7~--|
A|-7~----------------------7~----------------------|
E|-------------------------------------------------|


Refrain:
G|-------------------------------6--4-------|
D|-----------------------------4------6-4-2-|
A|------------2-2-0h2--------2--------------|
E|-5/1--2-2-2----------2-2-2----------------|

G|----------------------------------------|
D|----------------------------------------|
A|-------2-2-2--0000000-2222222-/14141414-|
E|-2-2-2----------------------------------|


Chorus I:
G|--------------------|--------------------------------------|
D|-------14h16-14-----|--------------------------------------|
A|-14h16----------7~--|--------------------------------------|
E|--------------------|-7\-0000000-7777777-/9999999-\5555555-|
                          
                                           Pre-Verse:
G|----------------------------------------|---------------------------------|
D|----------------------------------------|-------------------------------7-|
A|----------------------------------------|-----------------------------7---|
E|--00000000-77777777-/99999999-\55555555-|-0000000-77777777-9999999-\5-----|


Repeat Verse and Refrain


Chorus II:
G|-------------------------------------------------------------------|
D|-------------------------------------------------------------------|
A|-------------------------------------------------------------------|
E|-0000000-7x----9999999-\7777777--0000000-7x----7\-9999999-7777777--|


Adlib:
G|-------------------------------------------|
D|-------------------------------------------|
A|-------------------------------4-6-7-9-7-6-|
E|-9-9-9-9-9-7-7-7-7-7-5-5-5-5-5-------------|

G|--------------------------------------------|
D|--------------------------------------------|
A|--------------------------------------------|
E|-9--9-9-9-9-9-11-11-11-11-11-12-12-12-12-12-|


Repeat Chorus I and Intro II





            
            
Suggest correction
Creating personal tab
Creating personal tab
You can edit any tab online and save it as your Personal.

You can edit, replace or remove any tab part or add personal notes – all changes will be seen only by you.

Personal tabs can be accessed anytime from any device, even offline.
Learn more »
Give kudos to tab author, rate the tab!
1 2 3 4 5
comments
print report bad tab
2 comments total.
-1 reply
sadet 10 Apr 28, 2008 02:45 AM

ur intro sucks..and some of the refrain..

0 reply
gio99 833 Apr 28, 2008 06:12 PM

wla mali ung intro, naupdate q na..

guest
You may want to rate the tab now too:
select rating
Wanna post a correction for this tab? Suggest correction