Oops, an error
Loading. Please wait.

Stars bass

version 1
version 1

Whole song

Interactive

6,041 views 6 this week
no commentswrite comment
1 2 3 4 5
3 more votes to show rating
add to favorites
×
Save as Personal and add changes to this tab that will be seen only by you. Learn more ›
×
You can save this tab as Personal to edit and correct it or add notes. All changes will be seen only by you. Learn more »
launch autoscroll
font size
0
reset
guitar tuner
edit
Autoscroll
slow
fast
+/-
esc
set tempo
stop
Author
Difficulty
STARS BY CALLALILY BASS
(listen to the song for accurate listening)


Intro:

GUITAR 1 ( play 6 times)
e---------------------------------------------|
B------------15-------------------------------|
G-----12-12-----12--14-14--12-14/16-14-12-----|
D---------------------------------------------|
A---------------------------------------------|
E---------------------------------------------|

BASS: (after playing the intro twice)
G----------------------------|
D----------------------------|
A----------0-----------3-----|
E----3-----------0-----------|


Verse:
BASS: (one per time only)
G----------------------------|
D----------------------------|
A----------------5-----3-----|
E----0-----3-----------------|


Refrain: “im saying I love you again...”
BASS: (one per time only)
G----------------------------|
D----------------------------|
A----------------5-----3-----|
E----0-----3-----------------|

(in the part: “look at me crying”)
G----------------------------|
D----------------------------|
A----3333333333333333333-----|
E----------------------------|


Chorus
BASS: 
G----------------------------|
D----------------------------|
A----------0-----------3-----|
E----3-----------0-----------|

G----------------------|
D----------------------|
A----------0-----3-----|
E----3-----------------|


Interlude:
G----------------------------|
D----------------------------|
A----------0-----------3-----|
E----3-----------0-----------|

G----------------------|
D----------------------|
A----------0-----3-----|
E----3-----------------|

(repeat verse)
(repeat refrain)
(repeat chorus)



Adlib: 
G----------------------------|
D----------------------------|
A----------0-----------3-----|
E----3-----------0-----------|


Refrain: (no bass)

Tapos ng drums thrice hatawin sa part na 
   “look at me cryin”
G-----------------------|
D-----------------------|
A----33333333333333-----|
E-----------------------|


Chorus: “if only you could hear me...”
G----------------------------|
D----------------------------|
A----------0-----------3-----|
E----3-----------0-----------|
                  
“the stars in the sky will never be the same”
G-----------------------------------------------|
D-----------------------------------------------|
A-------------------0------------3333333333-----|
E-----3-----------------------------------------|


Chorus: “if only I had wings…”
G----------------------------|
D----------------------------|
A----------0-----------3-----|
E----3-----------0-----------|

“my love for you will never die”
G-------------------------------|
D-------------------------------|
A----------0-----3333333333-----|
E----3--------------------------|


Final Chorus: “if only you could hear me...”
G----------------------------|
D----------------------------|
A----------0-----------3-----|
E----3-----------0-----------|
                  
“the stars in the sky will never be the same”
G-----------------------------------------------|
D-----------------------------------------------|
A-------------------0------------3333333333-----|
E-----3-----------------------------------------|


Outro:
G----------------------------|
D----------------------------|
A----------0-----------3-----|
E----3-----------0-----------|
                  
G---------------------------------------|
D---------------------------------------|
A-------------------0------------33-----|
E-----3---------------------------------|

            
            
Suggest correction
Creating personal tab
Creating personal tab
You can edit any tab online and save it as your Personal.

You can edit, replace or remove any tab part or add personal notes – all changes will be seen only by you.

Personal tabs can be accessed anytime from any device, even offline.
Learn more »
Give kudos to tab author, rate the tab!
1 2 3 4 5
comments
print report bad tab
guest
You may want to rate the tab now too:
select rating
Wanna post a correction for this tab? Suggest correction