Oops, an error
Loading. Please wait.

Stars tab

version 3
version 3

Interactive

3,057 views 1 this week
4 commentsread comments
1 2 3 4 5
3 more votes to show rating
add to favorites
×
Save as Personal and add changes to this tab that will be seen only by you. Learn more ›
×
You can save this tab as Personal to edit and correct it or add notes. All changes will be seen only by you. Learn more »
launch autoscroll
font size
0
reset
how to read this tab
guitar tuner
edit
Autoscroll
slow
fast
+/-
esc
set tempo
stop
Author
STARS - Callalily
Tabbed by: Ronnie A. Degorio
Email: astral_kryst@yahoo.com

Tuning: standard

Introduction:

Guitar 1: (do this six times)
e|-----10------------------------------------------------------------------|
B|-8-8----8-10-10-10/12-10\8-----------------------------------------------|
G|-------------------------------------------------------------------------|
D|-------------------------------------------------------------------------|
A|-------------------------------------------------------------------------|
E|-------------------------------------------------------------------------|

Guitar 2: Palm Mute (do this four times)
e|-------------------------------------------------------------------------|
B|---------------------------------------------------------8---------------|
G|-4-4-4-4-4-4-4-----------------------------------------7---7-------------|
D|-2-2-2-2-2-2-2--2-x-2-2-2-2-2-2-/-12-12-12-12-12-12----------------------|
A|----------------3-x-3-3-3-3-3-3-/-10-10-10-10-10-10--5-------------------|
E|-------------------------------------------------------------------------|

Guitar 2: (do this two times) bale pag 5th part na ng lead e2 na ung gagawin niyo.
e|-------------------------------------------------------------------------|
B|-------------------------------------------------------------------------|
G|------------5-5-5-5-5-------------7-7-7-7-7------------------------------|
D|-2-2-2-2-2--5-5-5-5-5--5-5-5-5-5--7-7-7-7-7------------------------------|
A|-2-2-2-2-2--3-3-3-3-3--5-5-5-5-5--5-5-5-5-5------------------------------|
E|-0-0-0-0-0-------------3-3-3-3-3-----------------------------------------|

Verse/Refrain:

Guitar 1: riff
e|------10---|-------------10-10---10-10-----------------------------------|
B|-8h10------|-7-7-8-8-8-8-------8-------8---------------------------------|
G|-----------|-------------------------------------------------------------|
D|-----------|-------------------------------------------------------------|
A|-----------|-------------------------------------------------------------|
E|-----------|-------------------------------------------------------------|

Guitar 2: Palm mute (kagaya lang ng intro alamin niyo na lang kung kailan ipapasok ung
sa D ung sa huling part.)
e|-------------------------------------------------------------------------|
B|---------------------------------------------------------8---------------|
G|-4-4-4-4-4-4-4-----------------------------------------7---7-------------|
D|-2-2-2-2-2-2-2--2-x-2-2-2-2-2-2-/-12-12-12-12-12-12----------------------|
A|----------------3-x-3-3-3-3-3-3-/-10-10-10-10-10-10--5-------------------|
E|-------------------------------------------------------------------------|
-then dun sa may papuntang chorus ganito po palm mute ung iba maliban sa C lakasan niyo
lang hehe.
e|-------------------------------------------------------------------------|
B|-------------------------------------------------------------------------|
G|-4-4-4-4-4-4-4------------------------------------------5-5-5-5-5-5------|
D|-2-2-2-2-2-2-2--2-x-2-2-2-2-2-2-/-12-12-12-12-12-12--7--5-5-5-5-5-5------|
A|----------------3-x-3-3-3-3-3-3-/-10-10-10-10-10-10--5--3-3-3-3-3-3------|
E|-------------------------------------------------------------------------|

Chorus:
Guitar 1: (down strokes)
e|-3-----3------3------3------3------3------3------------------------------|
B|-3-----3------3------3------3------3------3------------------------------|
G|-0-----2------0------0------2------2------0------------------------------|
D|-0-(7x)--(7x)-2-(7x)-2-(7x)-0-(7x)---(7x)-2-(3x)-------------------------|
A|-2------------2------3------0-------------3------------------------------|
E|-3--------------------------3--------------------------------------------|

Guitar 2: (down strokes)
e|-------------------------------------------------------------------------|
B|-------------------------------------------------------------------------|
G|--------7-------------5-------------7------5-----------------------------|
D|-5------7------2------5------5------7------5-----------------------------|
A|-5-(7x)-5-(7x)-2-(7x)-3-(7x)-5-(7x)-5-(7x)-3-(3x)------------------------|
E|-3-------------0-------------3-------------------------------------------|

Intro:
Guitar 1: (do this two times)
e|-----10------------------------------------------------------------------|
B|-8-8----8-10-10-10/12-10\8-----------------------------------------------|
G|-------------------------------------------------------------------------|
D|-------------------------------------------------------------------------|
A|-------------------------------------------------------------------------|
E|-------------------------------------------------------------------------|

Guitar 2: (do this two times)
e|-------------------------------------------------------------------------|
B|-------------------------------------------------------------------------|
G|------------5-5-5-5-5-------------7-7-7-7-7------------------------------|
D|-2-2-2-2-2--5-5-5-5-5--5-5-5-5-5--7-7-7-7-7------------------------------|
A|-2-2-2-2-2--3-3-3-3-3--5-5-5-5-5--5-5-5-5-5------------------------------|
E|-0-0-0-0-0-------------3-3-3-3-3-----------------------------------------|

*Repeat Verse. - (uhm sa verse medyo naiba ung lead alamin niyo na lang madali lang
eh.)
*Repeat Chorus.

Adlib:

Guitar 1
e|-------------------------------------------------------------------------B|-------------------------------------------12\10-8--|
G|----------------------------------12----12---------9---------------------------------------------------------------------------|
D|----------------------12----12/14----14----------------------------10-9-7------------------------------------------------------|
A|-10-------10-12-12/14----14---------------------------------10-9-7-------------------------------------------------------------|
E|----10-12---------------------------------------------10h12--------------------------------------------------------------------|

e|-------------------------------------------------------------------------|
B|-------------------------------------------------------------------------|
G|-8/10--8/10\8--10/12\10--8/10\8------------------------------------------|
D|-------------------------------------------------------------------------|
A|-------------------------------------------------------------------------|
E|-------------------------------------------------------------------------|

Guitar 2:(do this two times) puro isang bagsak lang ,pero pagkakaalam ko alang D dito eh
niyo na lang.
e|-3--3--3--3--------------------------------------------------------------|
B|-3--3--3--3--------------------------------------------------------------|
G|-0--0--0--2--------------------------------------------------------------|
D|-2--2--0--0--------------------------------------------------------------|
A|-2--3--2-----------------------------------------------------------------|
E|-------3-----------------------------------------------------------------|

Bridge:

Guitar 2: Palm Mute
e|-------------------------------------------------------------------------|
B|-------------------------------------------------------------------------|
G|-4-4-4-4-4-4-4-----------------------------------------------------------|
D|-2-2-2-2-2-2-2--2-x-2-2-2-2-2-2-/-12-12-12-12-12-12--7-7-7-7-7-7---------|
A|----------------3-x-3-3-3-3-3-3-/-10-10-10-10-10-10--5-5-5-5-5-5---------|
E|-------------------------------------------------------------------------|

e|-------------------------------------------------------------------------|
B|-------------------------------------------------------------------------|
G|-4-4-4-4-4-4-4-----------------------------------------------------------|
D|-2-2-2-2-2-2-2--2-x-2-2-2-2-2-2-/-12-12-12-12-12-12--7-7-7-7-7-7---------|
A|----------------3-x-3-3-3-3-3-3-/-10-10-10-10-10-10--5-5-5-5-5-5---------|
E|-------------------------------------------------------------------------|

Guitar 1 and Guitar 2: pde rin C9 sa Guitar 2. mga ilang downstrokes din ito mga lima po.
e|-------------------------------------------------------------------------|
B|-------------------------------------------------------------------------|
G|-5-----------------------------------------------------------------------|
D|-5-----------------------------------------------------------------------|
A|-3-----------------------------------------------------------------------|
E|-------------------------------------------------------------------------|

*Repeat Chorus(3x). - (naiba lang po dito ung sa part ng C up and down strum po.)

Outro:
Guitar 1: (do this two times)
e|-----10------------------------------------------------------------------|
B|-8-8----8-10-10-10/12-10\8-----------------------------------------------|
G|-------------------------------------------------------------------------|
D|-------------------------------------------------------------------------|
A|-------------------------------------------------------------------------|
E|-------------------------------------------------------------------------|

Guitar 2:
e|-------------------------------------------------------------------------|
B|-------------------------------------------------------------------------|
G|------------5-5-5-5-5-------------7-7-7-7-7------------------------------|
D|-2-2-2-2-2--5-5-5-5-5--5-5-5-5-5--7-7-7-7-7------------------------------|
A|-2-2-2-2-2--3-3-3-3-3--5-5-5-5-5--5-5-5-5-5------------------------------|
E|-0-0-0-0-0-------------3-3-3-3-3-----------------------------------------|
im not sure kung sa G natapos wahehe...
e|------------------------------------------------------------------------3-|
B|-----------------------12-12-12-12-12-12-12-10-10-10-10-10-12-10-12-10--3-|
G|------------5-5-5-5-5--12-12-12-12-12-12-12-12-12-12-12-12-12-12-12-12--0-|
D|-2-2-2-2-2--5-5-5-5-5---x--x--x--x--x--x--x--x--x--x--x--x--x--x--x--x--0-|
A|-2-2-2-2-2--3-3-3-3-3--10-10-10-10-10-10-10-10-10-10-10-10-10-10-10-10--2-|
E|-0-0-0-0-0--------------------------------------------------------------3-|

sana po nagustuhan niyo, if ever may comments kau txt me at this no. 09194640845.

para po ito kay Charm...i luv u so much...
and also to the SONATA Band of DNHS-Main IV-Galileo
(charleS rOnnie johN ivAn jusTine ryAn)
at pati na rin sa Fall Of Innocence DNHS-Main III-Mendeleev.

Thx.

            
            
Suggest correction
Creating personal tab
Creating personal tab
You can edit any tab online and save it as your Personal.

You can edit, replace or remove any tab part or add personal notes – all changes will be seen only by you.

Personal tabs can be accessed anytime from any device, even offline.
Learn more »
Give kudos to tab author, rate the tab!
1 2 3 4 5
comments
print report bad tab
4 comments total. Showing first comments.
0 reply
Eemrach 30 Nov 06, 2006 02:49 AM

pasensya na mali adlib. e2 po ung tama.

Guitar 1
e|-------------------------------------------------------------------------|
B|-------------------------------------------12\10-8-----------------------|
G|----------------------------------12----12---------9---------------------|
D|----------------------12----12/14----14----------------------------10-9-7|
A|-10-------10-12-12/14----14---------------------------------10-9-7-------|
E|----10-12---------------------------------------------10h12--------------|

e|-------------------------------------------------------------------------|
B|-------------------------------------------------------------------------|
G|-7/9--7/9\7--12/14\12--7/9\7---------------------------------------------|
D|-------------------------------------------------------------------------|
A|-------------------------------------------------------------------------|
E|-------------------------------------------------------------------------|

0 reply
miguel_arriola 60 Nov 27, 2006 04:35 AM

ITS WRONG. HERE'S THE RIGHT ONE :


e|---------------------------------------------|
B|-------------------8--8-8-------12r10--8-----|
G|-----------7---7/9---9-------------------9~~-|
D|-5-5---7/9---9-------------------------------|
A|-----7---------------------------------------|
E|---------------------------------------------|


e|-------------------------3h5p3---------------|
B|-------------3/5—--3h5p3-------3h5p3---------|
G|-------5-4-2---------------------------------|
D|-5-4-2---------------------------------------|
A|---------------------------------------------|
E|---------------------------------------------|

0 reply
gakkung85 20 Apr 09, 2007 02:25 AM

mali lng seo miguel!!

guest
You may want to rate the tab now too:
select rating
Wanna post a correction for this tab? Suggest correction