Oops, an error
Loading. Please wait.

Trapped Inside The Moment tab

557 views 1 this week
no commentswrite comment
1 2 3 4 5
3 more votes to show rating
add to favorites
×
Save as Personal and add changes to this tab that will be seen only by you. Learn more ›
×
You can save this tab as Personal to edit and correct it or add notes. All changes will be seen only by you. Learn more »
launch autoscroll
font size
0
reset
how to read this tab
guitar tuner
edit
Autoscroll
slow
fast
+/-
esc
set tempo
stop
Title: Trapped Inside The Moment
Artist: Callalily
Album: Fisheye
Tabbed by: Mark Jesson Galera

For any comments and Suggestion:

Text Me: 09198408399
Friendster: boybassista@yahoo.com

        This is the new song of Callalily from their new album      
                              "Fisheye"..
                Kung may mali man,..pakicomment kaagad..tnx!


Tuning: Standard

Guitar 1:
e-----------7-------------------------------7---------------------|
b-5-4---5-7---7—5\4—-------------5-4---5-7----7-5/4---------------|
g-----4-------------4—555h7h5--------4----------------4—555h7h5---|
D-----------------------------------------------------------------|
A-----------------------------------------------------------------|
E-----------------------------------------------------------------|

Guitar 2:

e-----------------------------------------|
b-----------------------------------------|
g---6666---99999--------------------------|
D---6666---99999------99999-----77777-----|
A---4444---77777------99999-----77777-----|
E---------------------77777-----55555-----|

Verse:

Guitar 2:
Give me your…
e--------------------------------|
b--------------------------------|
g---6666-------------------------|
D---6666--99999--77777----99999--|
A---4444--99999--77777----99999--|
E---------77777--55555----77777--|
   pm    pm     pm         pm
    
Why do we…
e--------------------------------|
b--------------------------------|-
g---6666-------------------------|
D---6666--99999--77777----99999--|
A---4444--99999--77777----99999--|
E---------77777--55555----77777--|-

Drum roll

Don’t look… 
e--------------------------------|
b--------------------------------|
g---6666-------------------------|
D---6666--99999--77777----99999--|
A---4444--99999--77777----99999--|
E---------77777--55555----77777--|

Chorus:
Cause.
e------------------------------------|
b------------------------------------|
g------99999------------6666---------| 
D------99999----99999---6666--77777--|
A------77777----99999---4444--77777--|
E---------------77777---------55555--|

And I wanna..
e-----------------------------------------|
b-----------------------------------------|
g------99999------------6666--------------| 
D------99999----99999---6666--77777--9999-|
A------77777----99999---4444--77777--9999-|
E---------------77777---------55555--7777-|

Intro:

Guitar 1:
e----------------9-------------------------------------9------------------|
b-7-6---7--9-----7-6----55h7-55h7---7-6---7-9------7--6-----55h-7--55h7---|
g------6----------------6----------------------6-----------------6--------|
D-------------------------------------------------------------------------|
A-------------------------------------------------------------------------|
E-------------------------------------------------------------------------|

e-----------------------------------------|
b-----------------------------------------|
g------99999------------6666--------------| 
D------99999----99999---6666--77777--9999-|
A------77777----99999---4444--77777--9999-|
E---------------77777---------55555--7777-|

Bass only…Then

Dreams…let us.
e--------------------------------|
b--------------------------------|
g---6666-------------------------|
D---6666--99999--77777----99999--|
A---4444--99999--77777----99999--|
E---------77777--55555----77777--|

Chorus:

And I wanna say 
e------------------------------------|
b------------------------------------|
g------99999------------6666---------| 
D------99999----99999---6666--77777--|
A------77777----99999---4444--77777--|
E---------------77777---------55555--|

And I wanna hear
e------------------------------------|
b------------------------------------|
g------99999------------6666---------| 
D------99999----99999---6666--77777--|
A------77777----99999---4444--77777--|
E---------------77777---------55555--|

Bass and Piano Only. Then

That you breaks..
e--------------------------------|
b--------------------------------|
g---6666-------------------------|
D---6666--99999--77777----99999--|
A---4444--99999--77777----99999--|
E---------77777--55555----77777--|

Never bring it back.
e--------------------------------|
b--------------------------------|
g---6666-------------------------|
D---6666--99999--77777----99999--|
A---4444--99999--77777----99999--|
E---------77777--55555----77777--|

Lyrics:

Give me your hand and all of your attention
I don’t wanna lose this feeling
Now I’m trapped inside the moment.
Why do we have to fo back to reality?
Now we say goodbye.

I scream inside my head.
As we try to hld the tears back
While we slowly walk away
Don’t look back Just look for tomorrow

And I wanna say that this will last forever. 
And I want to be so, But it’s impossible
And I wanna hear that this will last forever not, in our memories
But forever in our hearts. 
Don’t you heart the phone and all of my apologies?
Forget about the sunrise creeping up on yesterday
Please don’t let us disappear…

            
            
Suggest correction
Creating personal tab
Creating personal tab
You can edit any tab online and save it as your Personal.

You can edit, replace or remove any tab part or add personal notes – all changes will be seen only by you.

Personal tabs can be accessed anytime from any device, even offline.
Learn more »
Give kudos to tab author, rate the tab!
1 2 3 4 5
comments
print report bad tab
guest
You may want to rate the tab now too:
select rating
Wanna post a correction for this tab? Suggest correction