Oops, an error
Loading. Please wait.

Yakap tab

version 2
version 2

Whole song

524 views 1 this week
no commentswrite comment
1 2 3 4 5
3 more votes to show rating
add to favorites
×
Save as Personal and add changes to this tab that will be seen only by you. Learn more ›
×
You can save this tab as Personal to edit and correct it or add notes. All changes will be seen only by you. Learn more »
launch autoscroll
font size
0
reset
how to read this tab
guitar tuner
edit
Autoscroll
slow
fast
+/-
esc
set tempo
stop
Author
Difficulty
"YAKAP"

(Callalily)


Cochineal
Carlo Vincent,Ferdie,Bryan @ Smith
Zypra lang mga tol.....

First contri ko....
not 90% Perfect...hehehehe...
kau nalang zumipra ng iba...
inaantok na ako .....

Intro:

Guitar1: D-Bm-G-A(2x)

Guitar2:
e|----------------------------------------------|---------------------|
B|--101010-------------------------1010---------|---------------------|
G|----------111111---------111111------1111-----|-999777999777979-----|
D|------------------121212----------------------|---------------------|
A|----------------------------------------------|---------------------|
E|----------------------------------------------|---------------------|


Verse1:

Guitar1: D-Bm-F#m-G(4x)

Guitar2:

  D            Bm            F#m           G
e|---0--------------------------0--------------| } 4x
B|--3--------------------------3---------------|
G|-2--------------------------2----------------|
D|0--------------------------0-----------------|
A|---------------------------------------------|
E|---------------------------------------------|


kasama ka buong araw
walang humpay na tawanan
bakas pa rin sa aking mikha
ang kasiyahan
ano nga ba ang iyong taglay
na wala sa iba?
parang nasa langit
pag kayakap ka


Chorus:

Guitar1: D-Bm-F#m-G

Guitar2:
e|----------------------------------------------|---------------------|
B|--101010-------------------------1010---------|---------------------|
G|----------111111---------111111------1111-----|-999777999777979-----|
D|------------------121212----------------------|---------------------|
A|----------------------------------------------|---------------------|
E|----------------------------------------------|---------------------|

wag kang mawawala sa aking piling
siguradong hindi-ye ko ito kakayanin  hoh!!

(Break)
(Repeat Intro Once)


Verse2:

(Do Guitar 1)

  D            Bm            F#m           G
e|---0--------------------------0--------------| } 4x
B|--5--------------------------5---------------|
G|-7--------------------------7----------------|
D|7--------------------------7-----------------|
A|---------------------------------------------|
E|---------------------------------------------|

natatameme ako
pag kausap ka
araw ko ay nakukumpleto
pag nakita ka na
ano nga bang meron ka
na wala sa iba?
parang nasa langit
pag kayakap ka na


(Repeat Chorus)


Interlude:

Guitar2:
e|----------------------------------------------|---------------------|
B|--101010-------------------------1010---------|---------------------|
G|----------111111---------111111------1111-----|-999777999777979-----|
D|------------------121212----------------------|---------------------|
A|----------------------------------------------|---------------------|
E|----------------------------------------------|---------------------|

Bridge:


   Bm      A               G

e|-7-7-7-7-5-5-5-5-|      --------------------------|
B|-7-7-7-7-5-5-5-5-|      --------------------------|
G|-7-7-7-7-6-6-6-6-| (3X) --------------------------|
D|-----------------|      -5-5-5-5-5-5-5-5-5-5-5----|
A|-----------------|      -5-5-5-5-5-5-5-5-5-5-5----|
E|-----------------|      -3-3-3-3-3-3-3-3-3-3-3----|


Bm       A          Bm
hindi ko maintindihan
          A
ang aking nararamdaman
Bm           A         G
ang tanging panalangin ko ngayon


(repeat Chorus 2X)

Ending
     D
e|---------------------------------------------------------|
B|---------------------------------------------------------|
G|---7-7-7-7-7-7-7-7-7-------------------------------------|
D|---7-7-7-7-7-7-7-7-7-------------------------------------|
A|---5-5-5-5-5-5-5-5-5-------------------------------------|
E|---------------------------------------------------------|

  Wag!!!


dedicated to all fuzzbox player...specially to Judy...

---------------------End-----------------------------------------------------

            
            
Suggest correction
Creating personal tab
Creating personal tab
You can edit any tab online and save it as your Personal.

You can edit, replace or remove any tab part or add personal notes – all changes will be seen only by you.

Personal tabs can be accessed anytime from any device, even offline.
Learn more »
Give kudos to tab author, rate the tab!
1 2 3 4 5
comments
print report bad tab
guest
You may want to rate the tab now too:
select rating
Wanna post a correction for this tab? Suggest correction