Oops, an error
Loading. Please wait.

Yakap tab

version 3
version 3

Whole song

926 views 3 this week
no commentswrite comment
1 2 3 4 5
2 more votes to show rating
add to favorites
×
Save as Personal and add changes to this tab that will be seen only by you. Learn more ›
×
You can save this tab as Personal to edit and correct it or add notes. All changes will be seen only by you. Learn more »
launch autoscroll
font size
0
reset
how to read this tab
guitar tuner
edit
Autoscroll
slow
fast
+/-
esc
set tempo
stop
Author
Difficulty
Yakap

By: Callalily

Tabber: Michael Francis A. Sanguyu
Age: 16
Hometown: Mabalacat, Pampanga
Band: Tyranny band(tyraniband@yahoo.com)
School: Don Bosco Academy Pampanga
Date: 12 - 08 - 2006
e-mail ad(s): eclipse_01@drugs.com (friendster)
              sabimocute_01@yahoo.com
              sabimocute_02@yahoo.com
Cell#: 0917-735-8988


          Bago mo icopy paste ung tab, please pakibasa muna 2:

 
   Binabati ko po mga kada ko:

   Mabuhay ang Tyranny band!!! yeah!!!
  
   Carlos - drumz
   Boks - vocalz
   Charles - Bass
   Dwine - Rhythm guitar
   Nikko - Keyboardz
   Albert - all around yan
   Jhosh - vocalz - regalo ko syu 2ng tab na 2(happy B-day)bwahahahahha
   Nikko - Keyboardz
   Mike(ako) - Lead guitar
     
 


Bhala kyu kng gs2 nyung dagdagan, bsta ganyan idea ko...(100%)sure yan



Standard tuning po... 

Intro:

Guitar 1

|----------------------------------------------------|
|----------------------------------------------------|
|---14-14-14-11-11-11----------11-11-11-14-14-11-11--| 
|---------------------11-11-11-----------------------|3x tapos ung sa baba
|----------------------------------------------------|
|----------------------------------------------------|

|----------------------------------------------------|
|----------------------------------------------------|
|----------------------------------------------------|
|---12/14-12-12/14-12-14-12--------------------------|
|----------------------------------------------------|
|----------------------------------------------------|

Guitar 2
              D(5)                               B(5)           
|---------------------------------|---------------------------------|
|---------------------------------|---------------------------------|
|-7-7-7-7-7-7-7-7-7-7-7-7-7-7-7-7-|-4-4-4-4-4-4-4-4-4-4-4-4-4-4-4-4-|
|-7-7-7-7-7-7-7-7-7-7-7-7-7-7-7-7-|-4-4-4-4-4-4-4-4-4-4-4-4-4-4-4-4-|
|-5-5-5-5-5-5-5-5-5-5-5-5-5-5-5-5-|-2-2-2-2-2-2-2-2-2-2-2-2-2-2-2-2-|
|---------------------------------|---------------------------------|

              F#(5)                              G(5)                    
|---------------------------------|---------------------------------|
|---------------------------------|---------------------------------|
|---------------------------------|---------------------------------|
|-4-4-4-4-4-4-4-4-4-4-4-4-4-4-4-4-|-5-5-5-5-5-5-5-5-5-5-5-5-5-5-5-5-|
|-4-4-4-4-4-4-4-4-4-4-4-4-4-4-4-4-|-5-5-5-5-5-5-5-5-5-5-5-5-5-5-5-5-|
|-2-2-2-2-2-2-2-2-2-2-2-2-2-2-2-2-|-3-3-3-3-3-3-3-3-3-3-3-3-3-3-3-3-|






Verse 1:

Guitar 1
              D(5)                         Bm(5)
|-----------------------------|-----------------------------|
|-----------------------------|-----------------------------|
|-----7-----7-----7-----7---7-|-----4-----4-----4-----4---4-|
|-----7-----7-----7-----7---7-|-----4-----4-----4-----4---4-|
|-5-5-5-5-5-5-5-5-5-5-5-5-5-5-|-2-2-2-2-2-2-2-2-2-2-2-2-2-2-|
|-----------------------------|-----------------------------|
  . .   . .   . .   . .   .     . .   . .   . .   . .   .      

             F#(5)                          G(5)
|-----------------------------|-----------------------------|
|-----------------------------|-----------------------------|
|-----------------------------|-----------------------------|
|-----4-----4-----4-----4---4-|-----5-----5-----5-----5-----|
|-----4-----4-----4-----4---4-|-----5-----5-----5-----5-----|
|-2-2-2-2-2-2-2-2-2-2-2-2-2-2-|-3-3-3-3-3-3-3-3-3-3-3-3-3-3-|
  . .   . .   . .   . .   .     . .   . .   . .   . .   .                   
      
Guitar 2

    D(5)   

|-----0-----|  
|-----------|  mririnig nyu naman kng kailan papasok eh...
|-----7-----|   
|-----7-----|   
|-----5-----|
|-----------|





Chorus

Guitar 1

|----------------------------------------------------|
|----------------------------------------------------|
|---14-14-14-11-11-11----------11-11-11-14-14-11-11--| 
|---------------------11-11-11-----------------------|3x tapos ung sa baba
|----------------------------------------------------|
|----------------------------------------------------|

|----------------------------------------------------|
|----------------------------------------------------|
|----------------------------------------------------|
|---12/14-12-12/14-12-14-12--------------------------|
|----------------------------------------------------|
|----------------------------------------------------|

Guitar 2
              D(5)                               B(5)           
|---------------------------------|---------------------------------|
|---------------------------------|---------------------------------|
|-7-7-7-7-7-7-7-7-7-7-7-7-7-7-7-7-|-4-4-4-4-4-4-4-4-4-4-4-4-4-4-4-4-|
|-7-7-7-7-7-7-7-7-7-7-7-7-7-7-7-7-|-4-4-4-4-4-4-4-4-4-4-4-4-4-4-4-4-|
|-5-5-5-5-5-5-5-5-5-5-5-5-5-5-5-5-|-2-2-2-2-2-2-2-2-2-2-2-2-2-2-2-2-|
|---------------------------------|---------------------------------|

              F#(5)                             G(5)                     
|---------------------------------|---------------------------------|
|---------------------------------|---------------------------------|
|---------------------------------|---------------------------------|
|-4-4-4-4-4-4-4-4-4-4-4-4-4-4-4-4-|-5-5-5-5-5-5-5-5-5-5-5-5-5-5-5-5-|
|-4-4-4-4-4-4-4-4-4-4-4-4-4-4-4-4-|-5-5-5-5-5-5-5-5-5-5-5-5-5-5-5-5-|
|-2-2-2-2-2-2-2-2-2-2-2-2-2-2-2-2-|-3-3-3-3-3-3-3-3-3-3-3-3-3-3-3-3-|





Intro(ulit)

Guitar 1

|----------------------------------------------------|
|----------------------------------------------------|
|---14-14-14-11-11-11----------11-11-11-14-14-11-11--| 
|---------------------11-11-11-----------------------|3x tapos ung sa baba
|----------------------------------------------------|
|----------------------------------------------------|

|----------------------------------------------------|
|----------------------------------------------------|
|----------------------------------------------------|
|---12/14-12-12/14-12-14-12--------------------------|
|----------------------------------------------------|
|----------------------------------------------------|

Guitar 2
              D(5)                               B(5)           
|---------------------------------|---------------------------------|
|---------------------------------|---------------------------------|
|-7-7-7-7-7-7-7-7-7-7-7-7-7-7-7-7-|-4-4-4-4-4-4-4-4-4-4-4-4-4-4-4-4-|
|-7-7-7-7-7-7-7-7-7-7-7-7-7-7-7-7-|-4-4-4-4-4-4-4-4-4-4-4-4-4-4-4-4-|
|-5-5-5-5-5-5-5-5-5-5-5-5-5-5-5-5-|-2-2-2-2-2-2-2-2-2-2-2-2-2-2-2-2-|
|---------------------------------|---------------------------------|

              F#(5)                              G(5)                     
|---------------------------------|---------------------------------|
|---------------------------------|---------------------------------|
|---------------------------------|---------------------------------|
|-4-4-4-4-4-4-4-4-4-4-4-4-4-4-4-4-|-5-5-5-5-5-5-5-5-5-5-5-5-5-5-5-5-|
|-4-4-4-4-4-4-4-4-4-4-4-4-4-4-4-4-|-5-5-5-5-5-5-5-5-5-5-5-5-5-5-5-5-|
|-2-2-2-2-2-2-2-2-2-2-2-2-2-2-2-2-|-3-3-3-3-3-3-3-3-3-3-3-3-3-3-3-3-|





Verse 2:

Guitar 1
             D(5)                         Bm(5)
|-----------------------------|-----------------------------|
|-----------------------------|-----------------------------|
|-----7-----7-----7-----7---7-|-----4-----4-----4-----4---4-|
|-----7-----7-----7-----7---7-|-----4-----4-----4-----4---4-|
|-5-5-5-5-5-5-5-5-5-5-5-5-5-5-|-2-2-2-2-2-2-2-2-2-2-2-2-2-2-|
|-----------------------------|-----------------------------|
  . .   . .   . .   . .   .     . .   . .   . .   . .   .      

            F#(5)                          G(5)
|-----------------------------|-----------------------------|
|-----------------------------|-----------------------------|
|-----------------------------|-----------------------------|
|-----4-----4-----4-----4---4-|-----5-----5-----5-----5-----|
|-----4-----4-----4-----4---4-|-----5-----5-----5-----5-----|
|-2-2-2-2-2-2-2-2-2-2-2-2-2-2-|-3-3-3-3-3-3-3-3-3-3-3-3-3-3-|
  . .   . .   . .   . .   .     . .   . .   . .   . .   .                   
      
Guitar 2
     D(5)   

|-----0-----|  
|-----------|  mririnig nyu naman kng kailan papasok eh...
|-----7-----|   
|-----7-----|   
|-----5-----|
|-----------|





Chorus

Guitar 1

|----------------------------------------------------|
|----------------------------------------------------|
|---14-14-14-11-11-11----------11-11-11-14-14-11-11--| 
|---------------------11-11-11-----------------------|3x tapos ung sa baba
|----------------------------------------------------|
|----------------------------------------------------|

|----------------------------------------------------|
|----------------------------------------------------|
|----------------------------------------------------|
|---12/14-12-12/14-12-14-12--------------------------|
|----------------------------------------------------|
|----------------------------------------------------|

Guitar 2
              D(5)                              B(5)           
|---------------------------------|---------------------------------|
|---------------------------------|---------------------------------|
|-7-7-7-7-7-7-7-7-7-7-7-7-7-7-7-7-|-4-4-4-4-4-4-4-4-4-4-4-4-4-4-4-4-|
|-7-7-7-7-7-7-7-7-7-7-7-7-7-7-7-7-|-4-4-4-4-4-4-4-4-4-4-4-4-4-4-4-4-|
|-5-5-5-5-5-5-5-5-5-5-5-5-5-5-5-5-|-2-2-2-2-2-2-2-2-2-2-2-2-2-2-2-2-|
|---------------------------------|---------------------------------|

              F#(5)                               G(5)                     
|---------------------------------|---------------------------------|
|---------------------------------|---------------------------------|
|---------------------------------|---------------------------------|
|-4-4-4-4-4-4-4-4-4-4-4-4-4-4-4-4-|-5-5-5-5-5-5-5-5-5-5-5-5-5-5-5-5-|
|-4-4-4-4-4-4-4-4-4-4-4-4-4-4-4-4-|-5-5-5-5-5-5-5-5-5-5-5-5-5-5-5-5-|
|-2-2-2-2-2-2-2-2-2-2-2-2-2-2-2-2-|-3-3-3-3-3-3-3-3-3-3-3-3-3-3-3-3-|






Adlib

Guitar 1

|----------------------------------------------------|
|----------------------------------------------------|
|---14-14-14-11-11-11----------11-11-11-14-14-11-11--| 
|---------------------11-11-11-----------------------|3x tapos ung sa baba
|----------------------------------------------------|
|----------------------------------------------------|

|----------------------------------------------------|
|----------------------------------------------------|
|----------------------------------------------------|
|---12/14-12-12/14-12-14-12--------------------------|
|----------------------------------------------------|
|----------------------------------------------------|

Guitar 2
              D(5)                              B(5)           
|---------------------------------|---------------------------------|
|---------------------------------|---------------------------------|
|-7-7-7-7-7-7-7-7-7-7-7-7-7-7-7-7-|-4-4-4-4-4-4-4-4-4-4-4-4-4-4-4-4-|
|-7-7-7-7-7-7-7-7-7-7-7-7-7-7-7-7-|-4-4-4-4-4-4-4-4-4-4-4-4-4-4-4-4-|
|-5-5-5-5-5-5-5-5-5-5-5-5-5-5-5-5-|-2-2-2-2-2-2-2-2-2-2-2-2-2-2-2-2-|
|---------------------------------|---------------------------------|

              F#(5)                             G(5)                     
|---------------------------------|---------------------------------|
|---------------------------------|---------------------------------|
|---------------------------------|---------------------------------|
|-4-4-4-4-4-4-4-4-4-4-4-4-4-4-4-4-|-5-5-5-5-5-5-5-5-5-5-5-5-5-5-5-5-|
|-4-4-4-4-4-4-4-4-4-4-4-4-4-4-4-4-|-5-5-5-5-5-5-5-5-5-5-5-5-5-5-5-5-|
|-2-2-2-2-2-2-2-2-2-2-2-2-2-2-2-2-|-3-3-3-3-3-3-3-3-3-3-3-3-3-3-3-3-|





Interlude: 

           Bm(5)                     A(5)      
|-7-----7-----7-----7-----|-------------------------|
|-7-----7-----7-----7-----|-------------------------|
|-7-----7-----7-----7-----|-------------------------| 3x  tapos...
|-9-----9-----9-----9-----|-7-----7-----7-----7-----|
|-9-----9-----9-----9-----|-7-----7-----7-----7-----|
|-7-7-7-7-7-7-7-7-7-7-7-7-|-5-5-5-5-5-5-5-5-5-5-5-5-|
    . .   . .   . .   . .     . .   . .   . .   . .         

              G(5)                     
|---------------------------------|
|---------------------------------|
|---------------------------------|
|-5-5-5-5-5-5-5-5-5-5-5-5-5-5-5-5-|
|-5-5-5-5-5-5-5-5-5-5-5-5-5-5-5-5-|
|-3-3-3-3-3-3-3-3-3-3-3-3-3-3-3-3-|



Chorus 

Guitar 1 & 2
           D(5) (may cut sa D5, pick nyu sa B5)  B(5)           
|---------------------------------|---------------------------------|
|---------------------------------|---------------------------------|
|-7-7-7-7-7-7-7-7-7-7-7-7-7-7-7-7-|-4-4-4-4-4-4-4-4-4-4-4-4-4-4-4-4-|
|-7-7-7-7-7-7-7-7-7-7-7-7-7-7-7-7-|-4-4-4-4-4-4-4-4-4-4-4-4-4-4-4-4-|
|-5-5-5-5-5-5-5-5-5-5-5-5-5-5-5-5-|-2-2-2-2-2-2-2-2-2-2-2-2-2-2-2-2-|
|---------------------------------|---------------------------------|

              F#(5)                              G(5)                     
|---------------------------------|---------------------------------|
|---------------------------------|---------------------------------|
|---------------------------------|---------------------------------|
|-4-4-4-4-4-4-4-4-4-4-4-4-4-4-4-4-|-5-5-5-5-5-5-5-5-5-5-5-5-5-5-5-5-|
|-4-4-4-4-4-4-4-4-4-4-4-4-4-4-4-4-|-5-5-5-5-5-5-5-5-5-5-5-5-5-5-5-5-|
|-2-2-2-2-2-2-2-2-2-2-2-2-2-2-2-2-|-3-3-3-3-3-3-3-3-3-3-3-3-3-3-3-3-|



Outro chorus(papasok lang ung lead)


Guitar 1

|----------------------------------------------------|
|----------------------------------------------------|
|---14-14-14-11-11-11----------11-11-11-14-14-11-11--| 
|---------------------11-11-11-----------------------|3x tapos ung sa baba
|----------------------------------------------------|
|----------------------------------------------------|

|----------------------------------------------------|
|----------------------------------------------------|
|----------------------------------------------------|
|---12/14-12-12/14-12-14-12--------------------------|
|----------------------------------------------------|
|----------------------------------------------------|


Guitar 2
              D(5)                            B5(5)           
|---------------------------------|---------------------------------|
|---------------------------------|---------------------------------|
|-7-7-7-7-7-7-7-7-7-7-7-7-7-7-7-7-|-4-4-4-4-4-4-4-4-4-4-4-4-4-4-4-4-|
|-7-7-7-7-7-7-7-7-7-7-7-7-7-7-7-7-|-4-4-4-4-4-4-4-4-4-4-4-4-4-4-4-4-|
|-5-5-5-5-5-5-5-5-5-5-5-5-5-5-5-5-|-2-2-2-2-2-2-2-2-2-2-2-2-2-2-2-2-|
|---------------------------------|---------------------------------|

              F#(5)                            G5(5)                     
|---------------------------------|---------------------------------|
|---------------------------------|---------------------------------|
|---------------------------------|---------------------------------|
|-4-4-4-4-4-4-4-4-4-4-4-4-4-4-4-4-|-5-5-5-5-5-5-5-5-5-5-5-5-5-5-5-5-|
|-4-4-4-4-4-4-4-4-4-4-4-4-4-4-4-4-|-5-5-5-5-5-5-5-5-5-5-5-5-5-5-5-5-|
|-2-2-2-2-2-2-2-2-2-2-2-2-2-2-2-2-|-3-3-3-3-3-3-3-3-3-3-3-3-3-3-3-3-|



d2 mag end:

guitar 1

|----------|
|----------|
|----14----|
|----------|
|----------|
|----------|

Guitar 2

     D(5)
|----------|
|----------|
|----7-----|
|----7-----|
|----5-----|
|----------|




Legend:

      / - slide
      . - Palm Mute


    Paad po friendster:

                eclipse_01@yahoo.com
                tyraniband@yahoo.com


  For questions or suggestions, msg me... tnx pow





            
            
Suggest correction
Creating personal tab
Creating personal tab
You can edit any tab online and save it as your Personal.

You can edit, replace or remove any tab part or add personal notes – all changes will be seen only by you.

Personal tabs can be accessed anytime from any device, even offline.
Learn more »
Give kudos to tab author, rate the tab!
1 2 3 4 5
comments
print report bad tab
guest
You may want to rate the tab now too:
select rating
Wanna post a correction for this tab? Suggest correction