Oops, an error
Loading. Please wait.

No Volvieron Mas tab

version 1
version 1

Whole song

38 views 1 this week
no commentswrite comment
1 2 3 4 5
3 more votes to show rating
add to favorites
×
Save as Personal and add changes to this tab that will be seen only by you. Learn more ›
×
You can save this tab as Personal to edit and correct it or add notes. All changes will be seen only by you. Learn more »
launch autoscroll
font size
0
reset
how to read this tab
guitar tuner
edit
Autoscroll
slow
fast
+/-
esc
set tempo
stop
Intro:

    A                         G             D
e||---------------------------------------------
B||------------5-----------------3--------------
G||------------4h6--4/2----------0--------------
D||------------------------------0----------0---
A||------0-----------------------------0h2------
E||--0h2--------------------2-3-----------------

               A
e||--------------------------------------------
B||-3--5/3---------2h3-------------------------
G||-2--5/2--5--2~--2----5-2-0-2~---------------
D||---------5--2--------5-2-0-2----------------
A||--------------------------------------------
E||--------------------------------------------

                    G                    D      A
e||--9----7----5----3------------10-12-----3-2-----------
B||--10---8----5----3---------10-----------3-3--2-0-2-2--
G||--------------/4-------/11------------2-2-2--2-2-2-2--
D||--------------------------------------0------2-2-2-2--
A||---------------------------------------------0-0-0-0--
E||------------------------------------------------------

    Asus         G            D
e||--------------3-3---------------2--3--2---------------
B||-3-2h3-3--2---3-3---------------3--3--3---2-0-2-------
G||-2-2---2--2---0-0---------------2---------2-2-2-------
D||-2-2---2--2---0---------------------------2-2-2-------
A||-0-0---0--0---2------5--7--5--------------0-0-0-------
E||--------------3---------------------------------------

    Asus         G             D             A
e||--------------3-3---------------2--3--2---------------
B||-3-2h3-3--2---3-3---------------3--3--3---2-0-2-------
G||-2-2---2--2---0-0---------------2---------2-2-2-------
D||-2-2---2--2---0---------------------------2-2-2-------
A||-0-0---0--0---2-------------5-------------0-0-0-------
E||--------------3-----/5--7-----------------------------


Esto lo va repitiendo hasta que llega a E, y hace:

    E                                  A
e||----0-------------------------------0-0-0-0-----------
B||----0-------------------------------2-3-3-2-----------  Estirar la nota
G||----1-------------------------------2-2-2-2-----------  9(F#), hasta que
D||------------------------------------2-2-2-2-----------  suene como la
A||-2--------------5--7--9e(10)-7------0-0-0-0-----------  nota 10(G).
E||-0-------/5--7------------------7---------------------


Y acá repite un poco lo anterior, combinado con la intro,
y siempre que toca D y A, juega con Dsus y Asus.

Después toca:


     E     B Bsus B  D    C   A
e||---------7-77-7--5-5--3-3--5-----------
B||--9-9----7-77-7--7-7--5-5--5-----------
G||--9-9----8-99-8--7-7--5-5--6-----------
D||--9-9----9-99-9--7-7--5-5--7-----------
A||--7-7----9-99-9--5-5--3-3--7-----------
E||---------7-77-7------------5-----------

Repite INTRO, y toca el solo:

e||---------------------------12e---------
B||---------10-12-10-10-12-10-----10-10---
G||--9--11--------------------------------
D||---------------------------------------
A||---------------------------------------
E||---------------------------------------


e||----------------------12-----------
B||---------10-12-10-12e----12--10~---
G||--9--11----------------------------
D||-----------------------------------
A||-----------------------------------
E||-----------------------------------

Repite Solo.

Luego toca:

     D      C#    F#m  A
e||--5-5-xx-4-4-x-2-2----55---55---
B||--7-7-xx-6-6-x-2-2----55---55---
G||--7-7-xx-6-6-x-2-2----6----66---
D||--x-x-xx-x-x-x-4-4----7---------
A||--5-5-xx-4-4-x-4-4--------------
E||---------------2-2--5----5------

Esto toca un rato, y después toca:

     D      C#    F#m  A
e||--5-5-xx-4-4-x-2-2-------5------
B||--7-7-xx-6-6-x-2-2--------------
G||--7-7-xx-6-6-x-2-2--3/6---------
D||--x-x-xx-x-x-x-4-4--------------
A||--5-5-xx-4-4-x-4-4--------------
E||---------------2-2--------------

Eso lo toca dos o tres veces, y cierra así:

     D      C#    F#m  A     D     F    F#
e||--5-5-xx-4-4-x-2-2--5--5--5-5---1-1--2-2-----
B||--7-7-xx-6-6-x-2-2--5--5--7-7---1-1--2-2-----
G||--7-7-xx-6-6-x-2-2--6--6--7-7---2-2--3-3-----
D||--x-x-xx-x-x-x-4-4--7--7--x-x---3-3--4-4-----
A||--5-5-xx-4-4-x-4-4--7--7--5-5---3-3--4-4-----
E||---------------2-2--5--5--------1-1--2-2-----


----

Si bien hay un par de arreglos que no estan
en la versión estudio, los toca Elio en
diferentes versiones del tema en vivo.

Cualquiero cosa, mi mail es elenanobostero@

            
            
Suggest correction
Creating personal tab
Creating personal tab
You can edit any tab online and save it as your Personal.

You can edit, replace or remove any tab part or add personal notes – all changes will be seen only by you.

Personal tabs can be accessed anytime from any device, even offline.
Learn more »
Give kudos to tab author, rate the tab!
1 2 3 4 5
comments
print report bad tab
guest
Wanna post a correction for this tab? Suggest correction