Oops, an error
Loading. Please wait.

Rehen tab

version 1
version 1

Whole song

32 views 1 this week
no commentswrite comment
1 2 3 4 5
3 more votes to show rating
add to favorites
×
Save as Personal and add changes to this tab that will be seen only by you. Learn more ›
×
You can save this tab as Personal to edit and correct it or add notes. All changes will be seen only by you. Learn more »
launch autoscroll
font size
0
reset
how to read this tab
guitar tuner
edit
Autoscroll
slow
fast
+/-
esc
set tempo
stop
Intro:
E----1313--10-10--13-1313--10-10------
B-12-1212--10-10--12-1212--10-10------
G-------------------------------------  X2
D-------------------------------------  /
A------------------------------------- /
E-------------------------------------/


RE                     LA
Verla otra vez aunque sea una vez
          SOL
y que no sea en un sueño..
                      (RE)Riff1:      E---9b-9b-9b-7----
ohhhh cuando fumo sin asco.            B---------------9~

          RE                 LA
Que la gilada me deje de llamar fontanet
           SOL
en vez de santos fontanet.
                     (RE)Riff2:       B---10b-10b-10b-8----
Que la papada no me cresca mas.        G-----------------10~

         LA
Que se acaben los vivos, los idiotas,
                    SOL
el hambre o esta politica

que es mas o menos lo mismo
                  (RE)Riff3:         E---13-13-13--13-10--13-10~
 y ya no da para mas.                 B---12-12-12--12-10--12-10~


       LA
El mensaje es para dios,

lo llevemos a San Pedro
        SOL
de la puerta de tu cielo
                      RE
y no los vamos a soltar ni a matar.
      LA                          SOL
Solo nos cansamos de rezar por milagros...


    RE                 LA
Un par de centimetros mas,
            SOL      MIm -(x4)
un minuto real De felicidad
    RE                LA                   SOL
Por ver crecer a tus hijos como si fueran mios
      RE                   LA
Explicame que paso con mi vida
                    SOL      MIm -(x2)
que me siento tan viejo ya...
     RE             LA                    SOL
No existe mayor verdad que mirarse a uno mismo...


RE                     LA
Verte otra vez aunque sea una vez
          SOL
y que no sea en un sueño..
                      (RE)Riff1:          E---9b-9b-9b-7----
ohhhh cuando fumo sin asco.                B---------------9~
          RE
que la palabra del pueblo
     LA                      SOL
sea mas poderosa que la del medio
                            (RE)Riff2:    B---10b-10b-10b-8----
que el que se enoje lo haga sin cobrar.    G-----------------10~

         LA
Que se acaben los vivos, los idiotas,
                     SOL
la muerte o estos politicos
                                            (Re)Riff3
que son mas o menos lo mismo y ya no da para mas
        LA
los llevamos a los dos, a San Pedro y al que cobra
      SOL
los peajes de las puertas de este infierno
                     RE
y no los vamos a soltar ni a matar.
      LA                             SOL
Solo nos cansamos de reclamar por milagros...


    RE                 LA
Un par de centimetros mas,
            SOL      MIm -(x4)
un minuto real De felicidad
    RE                LA                   SOL
Por ver crecer a tus hijos como si fueran mios
      RE                   LA
Explicame que paso con mi vida
                    SOL      MIm -(x2)
que me siento tan viejo ya...
     RE             LA                    SOL    MIm -(x3)
No existe mayor verdad que mirarse a uno mismo...   uhhhhhhh

Solo:
E----------------------------------------------------------
B-12b-12b-12b-12b-12-10-8-----8----------------------------
G-------------------------10b---10-7-----------------------
D--------------------------------------9-7-9-7---7-----(7)-
A----------------------------------------------9---(9)-----
E----------------------------------------------------------
                                                                 X2
E--13-13--101010--131313--101010---------------------------     /
B--12-12--101010--121212--101010---------------------------    /
G----------------------------------------------------------   /
D----------------------------------------------------------  /
A---------------------------------------------------------- /
E----------------------------------------------------------/

E----------------------------------------------------------
B----------------------------------------------------------
G--7--6~----4--2~----------------------------7~------------
D------------------5~----5-4-5-4-5-4-5-4~------------------
A----------------------------------------------------------
E----------------------------------------------------------

       LA
El mensaje es para dios,

lo llevemos a San Pedro
        SOL
de la puerta de tu cielo
                      RE
y no los vamos a soltar ni a matar.
      LA                          SOL
Solo nos cansamos de llorar por milagros...

    RE                 LA
Un par de centimetros mas,
            SOL      MIm
un minuto real De felicidad

MIm

E----------------------------------------------------------------
B----------------------------------------------------------------
G--9-12-12~--9-12-12-11-9-9~----7-5-4-4-4-4~-----2/0-------------
D---------------------------------------------------2-----0-2~---
A-----------------------------------------------------0/2--------
E----------------------------------------------------------------

E--12-12~--7-8-7-7~---------------------------------------------
B---------------------------------------------------------------
G-------------------11-12-11-7---7-7/9~-------------------------
D------------------------------9--------------------------------
A---------------------------------------------------------------
E---------------------------------------------------------------

E--------------------------------------------------------------------
B--12/15-12/15/12/15/12-15b------------------------------------------
G------------------------------7/9--12-12-12~----12-12-12--14-14-14~-
D--------------------------------------------------------------------
A--------------------------------------------------------------------
E--------------------------------------------------------------------

Cualquier consulta: emialfa_2@

            
            
Suggest correction
Creating personal tab
Creating personal tab
You can edit any tab online and save it as your Personal.

You can edit, replace or remove any tab part or add personal notes – all changes will be seen only by you.

Personal tabs can be accessed anytime from any device, even offline.
Learn more »
Give kudos to tab author, rate the tab!
1 2 3 4 5
comments
print report bad tab
guest
Wanna post a correction for this tab? Suggest correction