Oops, an error
Loading. Please wait.

No Le Ruegues tab

22 views 1 this week
no commentswrite comment
1 2 3 4 5
3 more votes to show rating
add to favorites
×
Save as Personal and add changes to this tab that will be seen only by you. Learn more ›
×
You can save this tab as Personal to edit and correct it or add notes. All changes will be seen only by you. Learn more »
launch autoscroll
font size
0
reset
how to read this tab
guitar tuner
edit
Autoscroll
slow
fast
+/-
esc
set tempo
stop
Que onda aca les paso esta rola del callejon13 un cover que
quedo  asi la toco puede tener unos errores pero
se oye bastante bien.

leyenda:
~: vibrato
/: deslizar
B: Bend
p: pull off
h: hammer on
v: palanca

Intro:
Am                            F
E|---------------------------|------------------------------|
B|---------------------------|------------------------------|
G|---------------------------|------------------------------|
D|---7---9-10-------7---9-10-|------7---9-10-------7---9-10-|
A|-7---7-------7--7---7------|-8--8---8-------8--8---8------|
E|---------------------------|------------------------------|

En el (5)es un armonico natural....
  G                   G#                 Am
E|----------------------------------------------------(5)v--|
B|----------------------------------------------------------|
G|----------------------------------------------------------|
D|--------9----10-12---------9----10-12--9--9h10h9-7--------|
A|-10--10---10--------11--11---11---------------------------|
E|----------------------------------------------------------|

Am                            F
E|---------------------------|------------------------------
B|---------------------------|------------------------------
G|---------------------------|------------------------------
D|---7---9-10-------7---9-10-|------7---9-10-------7---9-10-
A|-7---7-------7--7---7------|-8--8---8-------8--8---8------
E|---------------------------|------------------------------
  G                     G#           Am
E-------------------------------------------------
B-------------------------------------------------
G-------------------------------------------------
D-12-10h12h10-9--------14-12-9-------9-9h10h9-7---
A----------------12-10---------12-10--------------
E-------------------------------------------------

E----------------12-17-12-----------|
B-------------13----------13--------|
G----------14----------------14-13--|
D-------14--------------------------|
A-12-15-----------------------------|
E-----------------------------------|

Am                     F
E|------------------------------------------------
B|----10----12b(13)v------10---15b(17)(17)f-15-13~
G|-/9----9-------------/9----9--------------------
D|------------------------------------------------
A|------------------------------------------------
E|------------------------------------------------

E-------------------------------------------------|
B-13-15-17-15-17-15h17h13h12--5-5h6-5-------------|
G-------------------------------------7-5-7/9~----|
D-------------------------------------------------|
A-------------------------------------------------|
E-------------------------------------------------|

        Am
No le ruegues ni le pidas
          F
que otra ves vuelva a tu lado
        G
que no sepa que sin duda
         Am
por su amor te estas matando
Am
no le ruegues ni le digas
         F
que sus besos te hacen falta
       G
no la dejes que por medio
        Am
de tus ojos vea tu alma

que no sepa que dolor
         F
te esta acabando
       G
que embes de olvidar su amor
      Am
la estas extrañando

         Dm               G
Si de desesperacion te hara mas daño
      C                 E      Am
y tu pobre corazon vivira llorando
        Dm                     G
que no sepa que el dolor te esta acabando
       C                           Am
que emvez de olvidar su amor la estas extrañando
         Dm               G
si de desesperacion te hara mas daño
      C                 E     Am
y tu pobre corazon vivira llorando.

Lo demas va igual,el solo despues se los paso ora
que tenga tiempo.
Camaras eso es todo y un saludo pa la banda del
cacheton13 que son putos jajaja.

            
            
Suggest correction
Creating personal tab
Creating personal tab
You can edit any tab online and save it as your Personal.

You can edit, replace or remove any tab part or add personal notes – all changes will be seen only by you.

Personal tabs can be accessed anytime from any device, even offline.
Learn more »
Give kudos to tab author, rate the tab!
1 2 3 4 5
comments
print report bad tab
guest
Wanna post a correction for this tab? Suggest correction