Oops, an error
Loading. Please wait.

30 Segundos Y Casi Te Olvido tab

28 views 1 this week
no commentswrite comment
1 2 3 4 5
3 more votes to show rating
add to favorites
×
Save as Personal and add changes to this tab that will be seen only by you. Learn more ›
×
You can save this tab as Personal to edit and correct it or add notes. All changes will be seen only by you. Learn more »
launch autoscroll
font size
0
reset
how to read this tab
guitar tuner
edit
Autoscroll
slow
fast
+/-
esc
set tempo
stop
hey!!!!!!!....ke onda....aki aportando a LACUERDA,
una rola muy chida, facilita de tokar....asi ke token bien..=P


Intro:

1. ---------------------------------------
2. ---------------------------------------
3. ------5-----5------4-----4h5-4---------
4. ----5----------5-----5---------5-------
5. --3-------3------3-----3---------------
6. ---------------------------------------

1. ---------------------------------------
2. ---------------------------------------
3. -----5----5-------7------5-------------
4. ---5--------5-------5-------5----------
5. ---------------------------------------
6. --5----5-----5-------5------5----------

1. ---------------------------------------
2. ---------------------------------------
3. ------5-----5------4-----4h5-4---------
4. ----5----------5-----5---------5-------
5. ---------------------------------------
6. --3-------3------3-----3---------------

1. ---------------------------------------
2. ---------------------------------------
3. ---------------------------------------
4. -----3----3------3---------------------
5. ---3--------3----3---------------------
6. -1------1-----1--1---------------------    x2


C              Am                     C           G
La noche entera  la pase en vela pensando en ti
            F               G                    C
caminando hacia la hoguera dirigiéndome a mi fin

                    Am                                     G
no tienes la mínima idea  de la impotencia que me da que te valiera
         F                   G
no te interesa lo que yo te digo

  Am                              G
 aunque al decirlo me quede sin nada
 F
no es justo para mi
Am               G         F
no merezco este fin


el intro junto kon el koro
dame diez minutos para recordarte

quince mas para pensar en que decirte

una noche para imaginarte a ti

30 segundos nada mas para olvidarte


  C                            Am                       F
discutes algo que ni sientes impones tus ideas aunque no las tengas
 C                     G                   F                  G
quisieras vivir todas tus fantasías si no lo logras caes en la melancolía
 C                          Am
no puedes ni imaginar ni un solo instante lo que me pasa
    G                                    F
si no cerraras tu cabeza y me oyeras, quizás lograríamos estar mejor

  Am                   G
aunque al decirlo me quede sin nada
F
no es justo para mi
Am          G      F
no merezco este fin
C
dame diez minutos para recordarte
G
quince mas para pensar en que decirte
Am
una noche para imaginarte a ti
F                G
30 segundos nada mas para olvidarte   X2


Puente:
F  Am  G  F  Dm  F  Am  Dm F  C  G  F


C
dame diez minutos para recordarte
G
quince mas para pensar en que decirte
Am
una noche para imaginarte aqui
F                               G
30 segundos nada mas para olvidarte
C
Dame diez minutos, dame diez minutos
G
quince mas para pensar en que decirte
Am
todo lo que necesito solo son
F             G
30 segundos para olvidarte

1. ---------------------------------------
2. ---------------------------------------
3. ------5-----5------4-----4h5-4---------
4. ----5----------5-----5---------5-------
5. --3-------3------3-----3---------------
6. ---------------------------------------

1. ---------------------------------------
2. ---------------------------------------
3. -----5----5-------7------5-------------
4. ---5--------5-------5-------5----------
5. ---------------------------------------
6. --5----5-----5-------5------5----------

1. ---------------------------------------
2. ---------------------------------------
3. ------5-----5------4-----4h5-4---------
4. ----5----------5-----5---------5-------
5. ---------------------------------------
6. --3-------3------3-----3---------------

1. ---------------------------------------
2. ---------------------------------------
3. ---------------------------------------
4. -----3----3------3---------------------
5. ---3--------3----3---------------------
6. -1------1-----1--1---------------------


ps eso fue todo, kualkier duda o lo ke sea...
a mi korreo oz_kr_in@

            
            
Suggest correction
Creating personal tab
Creating personal tab
You can edit any tab online and save it as your Personal.

You can edit, replace or remove any tab part or add personal notes – all changes will be seen only by you.

Personal tabs can be accessed anytime from any device, even offline.
Learn more »
Give kudos to tab author, rate the tab!
1 2 3 4 5
comments
print report bad tab
guest
Wanna post a correction for this tab? Suggest correction