Oops, an error
Loading. Please wait.

I Need Your Love bass

version 1
version 1

Whole song

Interactive

1,757 views 3 this week
1 commentread comment
1 2 3 4 5
x 4
add to favorites
×
Save as Personal and add changes to this tab that will be seen only by you. Learn more ›
×
You can save this tab as Personal to edit and correct it or add notes. All changes will be seen only by you. Learn more »
launch autoscroll
font size
0
reset
guitar tuner
edit
Autoscroll
slow
fast
+/-
esc
set tempo
stop
Author
Difficulty
-------------------------------------------------------------------------------
                 I Need Your Love - Calvin Harris ft Ellie Goulding
-------------------------------------------------------------------------------
Tabbed by: David Parfett
E-mail: dbparfett@gmail.com 
Tuning: E A D G 
  

Intro  0:00

                                           x2
G|---------------------------------------------|----------|
D|---------------------------------------------|----------|
A|-3-(ring)---------------6-(ring)----6-(ring)-|-3-(ring)-|
E|------------4-(ring)-------------------------|----------|


No Bass


Beat  0:32  

                                 x2
G|---------------------------------|
D|---------------------------------|
A|-3-3-3-x---------6-6-6-x-6-6-6-x-|
E|---------4-4-4-x-----------------|


Verse  0:51

                                 x4
G|---------------------------------|
D|---------------------------------|
A|-3-3-3-x---------6-6-6-x-6-6-6-x-|
E|---------4-4-4-x-----------------|


Chorus  1:37

                                 x4
G|---------------------------------|
D|---------------------------------|
A|-3-3-3-x---------6-6-6-x-6-6-6-x-|
E|---------4-4-4-x-----------------|


Verse  1:53

                                 x4
G|---------------------------------|
D|---------------------------------|
A|-3-3-3-x---------6-6-6-x-6-6-6-x-|
E|---------4-4-4-x-----------------|


Chorus  2:23

                                 x4
G|---------------------------------|
D|---------------------------------|
A|-3-3-3-x---------6-6-6-x-6-6-6-x-|
E|---------4-4-4-x-----------------|


Bridge  2:54

                        x2
G|------------------------|
D|------------------------|
A|-3-(ring)------6-(ring)-|
E|------------------------|


Chorus  3:09

                                             x2
G|---------------------------------------------|
D|---------------------------------------------|
A|-3-(ring)---------------6-(ring)----6-(ring)-|
E|------------4-(ring)-------------------------|
                                 x4
G|---------------------------------|
D|---------------------------------|
A|-3-3-3-x---------6-6-6-x-6-6-6-x-|
E|---------4-4-4-x-----------------|





| x  Rute Note
===============================================================================

            
            
Suggest correction
Creating personal tab
Creating personal tab
You can edit any tab online and save it as your Personal.

You can edit, replace or remove any tab part or add personal notes – all changes will be seen only by you.

Personal tabs can be accessed anytime from any device, even offline.
Learn more »
comments
print report bad tab
1 comment total.
0 reply
919776 20 Sep 21, 2017 11:08 PM

Great song Bro! sounds awesome when played good job!

guest
You may want to rate the tab now too:
select rating
Wanna post a correction for this tab? Suggest correction