Oops, an error
Loading. Please wait.

Eyes Of Ireland chords

by Camel
2,223 views 1 this week
1 commentread comment
1 2 3 4 5
x 5
add to favorites
×
Save as Personal and add changes to this tab that will be seen only by you. Learn more ›
×
You can save this tab as Personal to edit and correct it or add notes. All changes will be seen only by you. Learn more »
launch autoscroll
font size
0
reset
transpose
0
reset
display chords
guitar tuner
edit
Autoscroll
slow
fast
+/-
esc
set tempo
stop
Author
Difficulty
intermediate
Strumming
There is no strumming pattern for this song yet. and get +5 IQ
Eyes of Ireland
---------------
Andy Latimer/Susan Hoover, from Camel's _Harbour of Tears_ 1996


Intro riff: (repeat 4 times)

     Dm                 C                  Am                 Dm
e:------------------|------------------|------------------|------------------|
B:------------------|------------------|------------------|------------------|
G:------------------|------------------|------------------|------------------|
D:-0----------------|------------------|------------------|---0--------------|
A:------------------|3-----------------|-0----------------|------------------|
E:------------------|------------------|------------------|-3----------------|


-------------------------------------------------
Verse 1
--------
Dm                  Bb          F
Listen now boys, my grandmother said 
     Gm          Dm   C           Dm
I'll tell you a story then off to bed.
Dm                  Bb           F
Once was a time, we lived of the land,
Gm            Dm           C          Dm    C  Am  Dm  Dm  C  Am  Dm
Harvest would come, and we all lent a hand. [riff repeated twice]


-------------------------------------------------
Verse 2
--------
Dm                        Bb            F
Winds blew our lives, and scattered our seeds.
Gm           Dm              C          Dm
Changing the landscape, from flowers to weeds.
Dm                       Bb       F
See in the graveyard the families gone.
    Gm          Dm         C          Dm
The grandest of tombstones carry them on...


-------------------------------------------------
Chorus
-------
         Bb   F        Am
When you sail from the Harbour,
          Bb   F       Dm       C  Am  Dm  Dm  C  Am  Dm
It's your last eyes of Ireland. [riff repeated twice]


-------------------------------------------------
Verse 3
--------
   Dm                   Bb      F
We tended the fire, and fairies appeased
    Gm          Dm         C         Dm
The flame never died until we had to leave.
Dm                     Bb            F
When we were gone, the house tumbled down
Gm          Dm               C           Dm
Covered our footprints, we'd left on the ground.


-------------------------------------------------
Chorus
-------
         Bb   F        Am
When you sail from the Harbour,
          Bb   F       Dm       C  Am  Dm  Dm  C  Am  Dm
It's your last eyes of Ireland. [riff repeated twice]


-------------------------------------------------
Slide Solo
-----------
[short guitar solo in the following chord sequence:
 C Dm Bb C Dm Bb Am

e|--s--------------s--------s--s-------------------------s-s----------------|
B|-3\-15---13----13\-10---10\11/10----s--s-----s--s-----5\6/5--s--s-----s---|
G|----------------------------------10\12/10--5\7-/-5---------5\7-/-5--2\-7-|
D|--------------------------------------------------------------------------|
A|--------------------------------------------------------------------------|
E|--------------------------------------------------------------------------|

 and then back to intro riff]

-------------------------------------------------
Verse 4
--------
   Dm                     Bb        F
My eyes are now tired and no longer see.
    Gm         Dm      C         Dm
But visions of Ireland linger in me.
   Dm                     Bb            F
So carry your past in the rooms of your heart
           Dm                C             Dm
and you'll never be empty of love when you part.


-------------------------------------------------
Chorus
-------
        Bb   F        Am    
And you sail from the Harbour,
     Bb   F       Dm       C  Am  Dm  Dm  C  Am  Dm
Your last eyes of Ireland. [riff repeated twice]


Whistle
--------
Dm C Am Dm
[riff repeated twice]


            
            
Suggest correction
Creating personal tab
Creating personal tab
You can edit any tab online and save it as your Personal.

You can edit, replace or remove any tab part or add personal notes – all changes will be seen only by you.

Personal tabs can be accessed anytime from any device, even offline.
Learn more »
comments
print report bad tab
1 comment total.
+1 reply
zarporiko 33 May 17, 2015 12:01 PM

Perfect tab!!

guest
You may want to rate the tab now too:
select rating
Wanna post a correction for this tab? Suggest correction