Oops, an error
Loading. Please wait.

Six Ate tab

version 2
version 2

Whole song

by Camel
46 views 6 this week
no commentswrite comment
1 2 3 4 5
3 more votes to show rating
add to favorites
×
Save as Personal and add changes to this tab that will be seen only by you. Learn more ›
×
You can save this tab as Personal to edit and correct it or add notes. All changes will be seen only by you. Learn more »
launch autoscroll
font size
0
reset
how to read this tab
guitar tuner
edit
Autoscroll
slow
fast
+/-
esc
set tempo
stop
Tabbed by Third Ear 


 (0:00)

e|-------------------------------------------------------|
B|-------------------------------------------------------|
G|-14---9/10---7-----14---9/10---7-----------------------|
D|-------------------------------------------------------|
A|-12---7/8----5-----12---7/8----5-----------------------|
E|-------------------------------------------------------|

e|-------------------------------------------------------|
B|-------------------------------------------------------|
G|-13---12/13--12/13--10---14---9/10--7-------------11---|
D|--------------------------------------------------9----|
A|-11---10/11--10/11--8----12---7/8---5-------------11---|
E|-------------------------------------------------------|


 (0:23)

e|-------------------------------------------|
B|-------------------------------------------|
G|-5-5---5-5---5-5---5-5---5-5---5-5---7-7-7-|  X 2
D|-5-5---5-5---5-5---5-5---5-5---5-5---7-7-7-|
A|-7-7---7-7---7-7---7-7---7-7---7-7---5-5-5-|
E|-5-5---5-5---5-5---5-5---5-5---5-5---------|

e|-------------------------------------------|
B|-4---2---0---------------------------------|
G|-4---2---0---4---2-------------------------|
D|-6---4---2---4---2--(0)--------------------|
A|-7---5---3---2---0---2---------------------|
E|---------------------3---------------------|


 (0:35)

e|-------------------------------------------------------|
B|-------------------------------------------------------|
G|-9-----9/11---14---9/10---7-----14---9/10---7----------|
D|----7--------------------------------------------------|
A|-7-----7/9----12---7/8----5-----12---7/8----5----------|
E|-------------------------------------------------------|

e|-------------------------------------------------------|
B|-------------------------------------------------------|
G|-13---12/13--12/13--10---14---9/10--7-------------11---|
D|--------------------------------------------------9----|
A|-11---10/11--10/11--8----12---7/8---5-------------11---|
E|-------------------------------------------------------|


 (1:04)

e|-------------------------------------------|
B|-------------------------------------------|
G|-5-5---5-5---5-5---5-5---5-5---5-5---7-7-7-|  X 2
D|-5-5---5-5---5-5---5-5---5-5---5-5---7-7-7-|
A|-7-7---7-7---7-7---7-7---7-7---7-7---5-5-5-|
E|-5-5---5-5---5-5---5-5---5-5---5-5---------|

e|-------------------------------------------|
B|-4---2---0---------------------------------|
G|-4---2---0---4---2-------------------------|
D|-6---4---2---4---2--(0)--------------------|
A|-7---5---3---2---0---2---------------------|
E|---------------------3---------------------|


 (1:16)

e|---------------------------------------------------------------------------|
B|--------------------------------------14-12------------------14-12---------|
G|-9------9/11------11/13--13-13-13-13--------13--13-13-13-13----------------|
D|------7---------9---------------------11-9-------------------11-9----------|
A|-7------7/9--------9/11--11-11-11-11--------11--11-11-11-11----------------|
E|---------------------------------------------------------------------------|

e|-----------------------------|
B|------------------14-12------|
G|-13--13-13-13-13---------13--|
D|------------------11-9-------|
A|-11--11-11-11-11---------11--|
E|-----------------------------|


 (1:28)

e|------------0-------------------------------------------0------------------|
B|-1----------0--------1----3----1----0----0----1----0----1------------------|
G|-2----------2--------2----2----2----0----0----2----0----2------------------|
D|-2----------2--------2----0----3----2----2----3----2----3------------------|
A|-0----------0--------0----0----3----2----3----3----3----3------------------|
E|---------------------------------------------------------------------------|


 (1:47)

e|---------------------------------------------------------------------------|
B|-11--10-----10-------------11--10-----10-----------------------------------|
G|--------12------12-10-9-----------12------12-10-9---9-9-9h11--11--9h11--11-|
D|---------------------------------------------------------------------------|
A|---------------------------------------------------------------------------|
E|---------------------------------------------------------------------------|

e|-----------------|
B|-----------------|
G|-9h11--9h11--11/-|
D|-----------------|
A|-----------------|
E|-----------------|


 (1:59)

e|-----------------------1-3--1-------------|
B|---------1-2-3---1-2-3---------3--2--1----|
G|---2-3-4--------------------------------3-| x 4
D|-5----------------------------------------|
A|------------------------------------------|
E|------------------------------------------|


 (2:11)

e|-----------------------------------------------|
B|----3---6---5---5--5-------3--6---5---5--------|
G|----3---3---5---5--5-------3--3---5---5----5/7-|
D|-5--5---5---5---5--5----5--5--5---5---5--------|
A|-------------------------------------------3/5-|
E|-----------------------------------------------|


 (2:35)

e|-5------------5----------------------------|
B|---6--------6---6-----------------6p5------|
G|------7---7-------7--------5-----------7-5-|
D|--------8-----------8---7-----7------------|
A|----------------------0--------------------|
E|-------------------------------------------|

 
 (2:41)

e|-----------------------------------------------|
B|----3---6---5---5--5-------3--6---5---5--------|
G|----3---3---5---5--5-------3--3---5---5----5/7-| x 3
D|-5--5---5---5---5--5----5--5--5---5---5--------|
A|-------------------------------------------3/5-|
E|-----------------------------------------------|


 (3:04)
 
e|-5------------5----------------------------|
B|---6--------6---6-----------------6-5------|
G|------7---7-------7--------5-----------7-5-|
D|--------8-----------8---7-----7------------|
A|----------------------0--------------------|
E|-------------------------------------------|


 (3:12)

e|-----------------------------------------------|
B|----3---6---5---5--5-------3--6---5---5--------|
G|----3---3---5---5--5-------3--3---5---5----5/7-|
D|-5--5---5---5---5--5----5--5--5---5---5--------|
A|-------------------------------------------3/5-|
E|-----------------------------------------------|


 (3:19)

e|---------------------------------------------------------------------------|
B|-11----10----10---------11--10-----10--------------------------------------|
G|-----------------12----------------------12--------------------------------|
D|---------------------------------------------------------------------------|
A|---------------------------------------------------------------------------|
E|---------------------------------------------------------------------------|

e|---------------------------------------------------------------------------|
B|-11----10----10---------11--10-----10--------------------------------------|
G|-----------------12----------------------12--------------------------------|
D|---------------------------------------------------------------------------|
A|---------------------------------------------------------------------------|
E|---------------------------------------------------------------------------|

e|---------------------------------------------------------------------------|
B|-11----10----10------10h11p10-----11--10----10------10h11p10---------------|
G|-----------------12-----------12---------------12------------12------------|
D|---------------------------------------------------------------------------|
A|---------------------------------------------------------------------------|
E|---------------------------------------------------------------------------|

 
 (3:27)

e|---------------------------------------------------------------------------|
B|-13b15rb13---11b13rb11--13b15rb13--11b13rb11-------------------------------|
G|---------------------------------------------------------------------------|
D|---------------------------------------------------------------------------|
A|---------------------------------------------------------------------------|
E|---------------------------------------------------------------------------|

e|---------------------------------------------------------------------------|
B|-13b15rb13---11b13rb11--13b15rb13--11b13rb11-------------------------------|
G|---------------------------------------------------------------------------|
D|---------------------------------------------------------------------------|
A|---------------------------------------------------------------------------|
E|---------------------------------------------------------------------------|


 (3:42)

e|------------------------------------------------------|
B|-10h13p10---------10h13p10---------10h13p10----10-----|
G|----------10---------------10---------------10-----12-|
D|-------------12---------------12----------------------|
A|------------------------------------------------------|
E|------------------------------------------------------|

 
 (3:57) *Play this in canon*

e|-12p10----10----------------|
B|-------13----10p8----8------|
G|------------------10--------|
D|-----------------------12---|
A|----------------------------|
E|----------------------------|

 
 (4:07)

e|-------------------|
B|-------------------|
G|-7p5---------------|
D|-----7-5-3h5-2h3-0-|
A|-------------------|
E|-------------------|


 (4:14)

e|----------------------------------------|
B|----3---6---5---5--5-------3--6---5---5-|
G|----3---3---5---5--5-------3--3---5---5-|
D|-5--5---5---5---5--5----5--5--5---5---5-|
A|----------------------------------------|
E|----------------------------------------|


 (4:21)

 Guitar solo:

e|---------------------------------------------------------------|
B|---------------------------------------------------------------|
G|-5b7--5b7----5b7---3--3h5p3p0--2--3--2h3p2p0------2-3-3/5-3----|
D|----------------------------------------------3-5--------------|
A|---------------------------------------------------------------|
E|---------------------------------------------------------------|


e|---------------------------------------------------------------|
B|---------------------------3-6/8---6-3-----------3-3-6-3--6/8--|
G|-5b7--5b7--b7-b7rb5---3-5b--------------5b6rb5p3---------------|
D|---------------------------------------------------------------|
A|---------------------------------------------------------------|
E|---------------------------------------------------------------|


e|--------6-------------------------------------------3------6---|
B|-6-8-8----8--11p10p8------------------------------3---6/8----8-|
G|---------------------10p8p7----------3-----3--5b6--------------|
D|----------------------------10p8p7------5----------------------|
A|---------------------------------------------------------------|
E|---------------------------------------------------------------|


e|-8b10--8b10---6----6-------3-----3-6-5--3--------------------3-|
B|----------------8------6-----3-6-----------3---------------3---|
G|--------------------------------------------5b6rb5p3--5b6------|
D|---------------------------------------------------------------|
A|---------------------------------------------------------------|
E|---------------------------------------------------------------|


e|---------------------------------------------------------------|
B|-3-11p10p8-------------------------------------------5b6-------|
G|-----------10p8p7------------------------------------5b6---5---|
D|------------------10p8p7--8-------8------8-------8-------------|
A|----------------------------8--10---8-10---8-10----------------|
E|---------------------------------------------------------------|


e|---------------------------------------------------------------|
B|---------------------------------------------------------------|
G|-3------3------3---5b6--5--3-----------------------------------|
D|----3-5---3-5----------------5-3-------------------------------|
A|---------------------------------5/3-1-3-1---------------------|
E|-------------------------------------------3-------------------|


 (4:59)

 
e|----------------------------------------|
B|----3---6---5---5--5-------3--6---5---5-|
G|----3---3---5---5--5-------3--3---5---5-| x 3
D|-5--5---5---5---5--5----5--5--5---5---5-|
A|----------------------------------------|
E|----------------------------------------|


 (5:15)

e|-6-------6-------6-------6--------------|
B|-6---8---9-------6---8---9---8----------|
G|-6---8---6---8---6---8---6---8----------|
D|-8-------8---8---8-------8--(8)---------|
A|----------------------------------------|
E|----------------------------------------|


 (5:22)

e|----------------------------------------|
B|----3---6---5---5--5-------3--6---5---5-|
G|----3---3---5---5--5-------3--3---5---5-| x 2
D|-5--5---5---5---5--5----5--5--5---5---5-|
A|----------------------------------------|
E|----------------------------------------|


 (5:29)
 
e|------------------------------------------------|
B|------------------------------------------------|
G|-11---5-5---5-5---5-5---5-5---5-5---5-5---7-7-7-|  X 2
D|-9----5-5---5-5---5-5---5-5---5-5---5-5---7-7-7-|
A|-11---7-7---7-7---7-7---7-7---7-7---7-7---5-5-5-|
E|------5-5---5-5---5-5---5-5---5-5---5-5---------|

e|------------------------|
B|-4---2---0--------------|
G|-4---2---0---4---2------|
D|-6---4---2---4---2--(0)-|
A|-7---5---3---2---0---2--|
E|---------------------3--|


 (5:41)

e|---------------------------------------------------------------------------|
B|--------------------------------------14-12------------------14-12---------|
G|-9------9/11------11/13--13-13-13-13--------13--13-13-13-13----------------|
D|------7---------9---------------------11-9-------------------11-9----------|
A|-7------7/9--------9/11--11-11-11-11--------11--11-11-11-11----------------|
E|---------------------------------------------------------------------------|

e|------------------------------------------------------|
B|------------------------------------------------------|
G|-13--13-13--12--12-12--11--11-11--10--10-10--9-----11-|
D|------------------------------------------------------|
A|-11--11-11--10--10-10--9---9--9---8---8--8---7-----9--|
E|------------------------------------------------------|


e|------------------------------------------------------|
B|------------------------------------------------------|
G|-13-13--13-13--13-13--13-13--13-13--13-13--13--13--13-|
D|------------------------------------------------------|
A|-11-11--11-11--11-11--11-11--11-11--11-11--11--11--11-|
E|------------------------------------------------------|

e|----------------------------------|
B|----------------------------------|
G|-13-13--13-13--13-13--13-13--13---|
D|----------------------------------|
A|-11-11--11-11--11-11--11-11--11---|
E|----------------------------------|



************************************

| /    Slide up
| (n)  Ghost note
| h    Hammer-on
| p    Pull-off
| b    Bend
 

************************************

            
            
Suggest correction
Creating personal tab
Creating personal tab
You can edit any tab online and save it as your Personal.

You can edit, replace or remove any tab part or add personal notes – all changes will be seen only by you.

Personal tabs can be accessed anytime from any device, even offline.
Learn more »
Give kudos to tab author, rate the tab!
1 2 3 4 5
comments
print report bad tab
guest
You may want to rate the tab now too:
select rating
Wanna post a correction for this tab? Suggest correction